  0
SECTION
  2
HEADER
  9
$ACADVER
  1
AC1009
  9
$INSBASE
 10
0.0
 20
0.0
 30
0.0
  9
$EXTMIN
 10
-180.0
 20
-271.68557005312488
 30
0.0
  9
$EXTMAX
 10
180.0
 20
263.53181500000011
 30
0.0
  9
$LIMMIN
 10
0.0
 20
0.0
  9
$LIMMAX
 10
0.0
 20
0.0
  9
$ORTHOMODE
 70
     0
  9
$REGENMODE
 70
     1
  9
$FILLMODE
 70
     1
  9
$QTEXTMODE
 70
     0
  9
$MIRRTEXT
 70
     1
  9
$DRAGMODE
 70
     2
  9
$LTSCALE
 40
10.16
  9
$OSMODE
 70
   231
  9
$ATTMODE
 70
     1
  9
$TEXTSIZE
 40
0.0
  9
$TRACEWID
 40
1.0
  9
$TEXTSTYLE
  7
STANDARD
  9
$CLAYER
  8
DATA
  9
$CELTYPE
  6
BYLAYER
  9
$CECOLOR
 62
   256
  9
$DIMSCALE
 40
1.0
  9
$DIMASZ
 40
0.18
  9
$DIMEXO
 40
0.0625
  9
$DIMDLI
 40
0.38
  9
$DIMRND
 40
0.0
  9
$DIMDLE
 40
0.0
  9
$DIMEXE
 40
0.18
  9
$DIMTP
 40
0.0
  9
$DIMTM
 40
0.0
  9
$DIMTXT
 40
0.18
  9
$DIMCEN
 40
0.09
  9
$DIMTSZ
 40
0.0
  9
$DIMTOL
 70
     0
  9
$DIMLIM
 70
     0
  9
$DIMTIH
 70
     1
  9
$DIMTOH
 70
     1
  9
$DIMSE1
 70
     0
  9
$DIMSE2
 70
     0
  9
$DIMTAD
 70
     0
  9
$DIMZIN
 70
     0
  9
$DIMBLK
  1

  9
$DIMASO
 70
     1
  9
$DIMSHO
 70
     1
  9
$DIMPOST
  1

  9
$DIMAPOST
  1

  9
$DIMALT
 70
     0
  9
$DIMALTD
 70
     2
  9
$DIMALTF
 40
25.399999999999999
  9
$DIMLFAC
 40
1.0
  9
$DIMTOFL
 70
     0
  9
$DIMTVP
 40
0.0
  9
$DIMTIX
 70
     0
  9
$DIMSOXD
 70
     0
  9
$DIMSAH
 70
     0
  9
$DIMBLK1
  1

  9
$DIMBLK2
  1

  9
$DIMSTYLE
  2
STANDARD
  9
$DIMCLRD
 70
     0
  9
$DIMCLRE
 70
     0
  9
$DIMCLRT
 70
     0
  9
$DIMTFAC
 40
1.0
  9
$DIMGAP
 40
0.09
  9
$LUNITS
 70
     2
  9
$LUPREC
 70
     4
  9
$SKETCHINC
 40
0.1
  9
$FILLETRAD
 40
0.0
  9
$AUNITS
 70
     0
  9
$AUPREC
 70
     0
  9
$MENU
  1
acad
  9
$ELEVATION
 40
0.0
  9
$PELEVATION
 40
0.0
  9
$THICKNESS
 40
0.0
  9
$LIMCHECK
 70
     0
  9
$BLIPMODE
 70
     0
  9
$CHAMFERA
 40
0.0
  9
$CHAMFERB
 40
0.0
  9
$SKPOLY
 70
     0
  9
$TDCREATE
 40
2456940.4151041671
  9
$TDUPDATE
 40
2456940.4195935181
  9
$TDINDWG
 40
0.0004226389
  9
$TDUSRTIMER
 40
0.0004226273
  9
$USRTIMER
 70
     1
  9
$ANGBASE
 50
0.0
  9
$ANGDIR
 70
     0
  9
$PDMODE
 70
     1
  9
$PDSIZE
 40
-2.0
  9
$PLINEWID
 40
0.0
  9
$COORDS
 70
     2
  9
$SPLFRAME
 70
     0
  9
$SPLINETYPE
 70
     6
  9
$SPLINESEGS
 70
     8
  9
$ATTDIA
 70
     0
  9
$ATTREQ
 70
     1
  9
$HANDLING
 70
     1
  9
$HANDSEED
  5
2A9
  9
$SURFTAB1
 70
     6
  9
$SURFTAB2
 70
     6
  9
$SURFTYPE
 70
     6
  9
$SURFU
 70
     6
  9
$SURFV
 70
     6
  9
$UCSNAME
  2

  9
$UCSORG
 10
0.0
 20
0.0
 30
0.0
  9
$UCSXDIR
 10
1.0
 20
0.0
 30
0.0
  9
$UCSYDIR
 10
0.0
 20
1.0
 30
0.0
  9
$PUCSNAME
  2

  9
$PUCSORG
 10
0.0
 20
0.0
 30
0.0
  9
$PUCSXDIR
 10
1.0
 20
0.0
 30
0.0
  9
$PUCSYDIR
 10
0.0
 20
1.0
 30
0.0
  9
$USERI1
 70
     0
  9
$USERI2
 70
     0
  9
$USERI3
 70
     0
  9
$USERI4
 70
     0
  9
$USERI5
 70
     0
  9
$USERR1
 40
0.0
  9
$USERR2
 40
0.0
  9
$USERR3
 40
0.0
  9
$USERR4
 40
0.0
  9
$USERR5
 40
0.0
  9
$WORLDVIEW
 70
     1
  9
$SHADEDGE
 70
     3
  9
$SHADEDIF
 70
    70
  9
$TILEMODE
 70
     1
  9
$MAXACTVP
 70
    64
  9
$PLIMCHECK
 70
     0
  9
$PEXTMIN
 10
1.0000000000000000E+020
 20
1.0000000000000000E+020
 30
1.0000000000000000E+020
  9
$PEXTMAX
 10
-1.0000000000000000E+020
 20
-1.0000000000000000E+020
 30
-1.0000000000000000E+020
  9
$PLIMMIN
 10
0.0
 20
0.0
  9
$PLIMMAX
 10
12.0
 20
9.0
  9
$UNITMODE
 70
     0
  9
$VISRETAIN
 70
     0
  9
$PLINEGEN
 70
     1
  9
$PSLTSCALE
 70
     0
  0
ENDSEC
  0
SECTION
  2
TABLES
  0
TABLE
  2
VPORT
 70
     1
  0
VPORT
  2
*ACTIVE
 70
     0
 10
0.0
 20
0.0
 11
1.0
 21
1.0
 12
0.0
 22
-4.0768775265624413
 13
0.0
 23
0.0
 14
1.0
 24
1.0
 15
0.0
 25
0.0
 16
0.0
 26
0.0
 36
1.0
 17
0.0
 27
0.0
 37
0.0
 40
539.2016335770935
 41
2.362732919254658
 42
50.0
 43
0.0
 44
0.0
 50
0.0
 51
0.0
 71
     0
 72
  2000
 73
     1
 74
     1
 75
     0
 76
     0
 77
     0
 78
     0
  0
ENDTAB
  0
TABLE
  2
LTYPE
 70
    11
  0
LTYPE
  2
CONTINUOUS
 70
     0
  3
Solid line
 72
    65
 73
     0
 40
0.0
  0
LTYPE
  2
STYLE_05
 70
     0
  3

 72
    65
 73
     2
 40
0.208282470703125
 49
0.069427490234375
 49
-0.13885498046875
  0
ENDTAB
  0
TABLE
  2
LAYER
 70
     5
  0
LAYER
  2
0
 70
     0
 62
     7
  6
CONTINUOUS
  0
LAYER
  2
DATA
 70
     0
 62
     7
  6
CONTINUOUS
  0
LAYER
  2
HIBINO-BASE
 70
     0
 62
     7
  6
CONTINUOUS
  0
LAYER
  2
SPEC
 70
     0
 62
     7
  6
CONTINUOUS
  0
LAYER
  2
DIMNSIONS
 70
     0
 62
     7
  6
CONTINUOUS
  0
ENDTAB
  0
TABLE
  2
STYLE
 70
     3
  0
STYLE
  2
STANDARD
 70
     0
 40
0.0
 41
1.0
 50
0.0
 71
     0
 42
0.0
  3
txt
  4
BIGFONT.SHX
  0
ENDTAB
  0
TABLE
  2
VIEW
 70
     0
  0
ENDTAB
  0
TABLE
  2
UCS
 70
     0
  0
ENDTAB
  0
TABLE
  2
APPID
 70
     4
  0
APPID
  2
ACAD
 70
     0
  0
APPID
  2
ACADANNOTATIVE
 70
     0
  0
APPID
  2
ACAD_NAV_VCDISPLAY
 70
     0
  0
APPID
  2
ACAD_MLEADERVER
 70
     0
  0
ENDTAB
  0
TABLE
  2
DIMSTYLE
 70
     2
  0
DIMSTYLE
  2
STANDARD
 70
     0
  3

  4

  5

  6

  7

 40
1.0
 41
0.18
 42
0.0625
 43
0.38
 44
0.18
 45
0.0
 46
0.0
 47
0.0
 48
0.0
140
0.18
141
0.09
142
0.0
143
25.399999999999999
144
1.0
145
0.0
146
1.0
147
0.09
 71
     0
 72
     0
 73
     1
 74
     1
 75
     0
 76
     0
 77
     0
 78
     0
170
     0
171
     2
172
     0
173
     0
174
     0
175
     0
176
     0
177
     0
178
     0
  0
ENDTAB
  0
ENDSEC
  0
SECTION
  2
BLOCKS
  0
BLOCK
  8
0
  2
$MODEL_SPACE
 70
     0
 10
0.0
 20
0.0
 30
0.0
  3
$MODEL_SPACE
  1

  0
ENDBLK
  5
22D
  8
0
  0
BLOCK
 67
     1
  8
0
  2
$PAPER_SPACE
 70
     0
 10
0.0
 20
0.0
 30
0.0
  3
$PAPER_SPACE
  1

  0
ENDBLK
  5
229
 67
     1
  8
0
  0
ENDSEC
  0
SECTION
  2
ENTITIES
  0
LINE
  5
2C
  8
HIBINO-BASE
  6
CONTINUOUS
 62
     7
 10
-180.0
 20
263.53181500000011
 30
0.0
 11
180.0
 21
263.53181500000011
 31
0.0
  0
LINE
  5
2D
  8
HIBINO-BASE
  6
CONTINUOUS
 62
     7
 10
180.0
 20
-256.46818500000001
 30
0.0
 11
-180.0
 21
-256.46818500000001
 31
0.0
  0
LINE
  5
2E
  8
HIBINO-BASE
  6
CONTINUOUS
 62
     7
 10
-180.0
 20
-256.46818500000001
 30
0.0
 11
-180.0
 21
263.53181500000011
 31
0.0
  0
LINE
  5
2F
  8
HIBINO-BASE
  6
CONTINUOUS
 62
     7
 10
180.0
 20
263.53181500000011
 30
0.0
 11
180.0
 21
-256.46818500000001
 31
0.0
  0
LINE
  5
30
  8
HIBINO-BASE
  6
CONTINUOUS
 62
     7
 10
0.0
 20
-211.46818500000001
 30
0.0
 11
180.0
 21
-211.46818500000001
 31
0.0
  0
LINE
  5
31
  8
HIBINO-BASE
  6
CONTINUOUS
 62
     7
 10
0.0
 20
-256.46818500000001
 30
0.0
 11
0.0
 21
-211.46818500000001
 31
0.0
  0
TEXT
  5
32
  8
HIBINO-BASE
 62
     7
 10
1.8000000000000109
 20
-216.48557166666669
 30
0.0
 40
3.2576822916666659
  1
NOTE
 41
0.7
 11
1.8000000000000109
 21
-213.22788937499999
 31
0.0
 73
     3
  0
LINE
  5
33
  8
HIBINO-BASE
  6
CONTINUOUS
 62
     7
 10
70.0
 20
-256.46818500000001
 30
0.0
 11
70.0
 21
-211.46818500000001
 31
0.0
  0
TEXT
  5
34
  8
HIBINO-BASE
 62
     7
 10
71.799999999999955
 20
-216.48557166666669
 30
0.0
 40
3.2576822916666659
  1
TITLE
 41
0.7
 11
71.799999999999955
 21
-213.22788937499999
 31
0.0
 73
     3
  0
LINE
  5
35
  8
HIBINO-BASE
  6
CONTINUOUS
 62
     7
 10
0.0
 20
-236.46818500000001
 30
0.0
 11
180.0
 21
-236.46818500000001
 31
0.0
  0
TEXT
  5
36
  8
HIBINO-BASE
 62
     7
 10
96.799999999999969
 20
-241.37293166666669
 30
0.0
 40
3.2576822916666659
  1
DRAWN
 41
0.7
 11
96.799999999999969
 21
-238.11524937499999
 31
0.0
 73
     3
  0
TEXT
  5
37
  8
HIBINO-BASE
 62
     7
 10
46.799999999999962
 20
-241.37293166666669
 30
0.0
 40
3.2576822916666659
  1
DATE
 41
0.7
 11
46.799999999999962
 21
-238.11524937499999
 31
0.0
 73
     3
  0
TEXT
  5
38
  8
HIBINO-BASE
 62
     7
 10
26.799999999999951
 20
-241.37293166666669
 30
0.0
 40
3.2576822916666659
  1
SCALE
 41
0.7
 11
26.799999999999951
 21
-238.11524937499999
 31
0.0
 73
     3
  0
TEXT
  5
39
  8
HIBINO-BASE
 62
     7
 10
71.799999999999955
 20
-241.37293166666669
 30
0.0
 40
3.2576822916666659
  1
DESIGN
 41
0.7
 11
71.799999999999955
 21
-238.11524937499999
 31
0.0
 73
     3
  0
TEXT
  5
3A
  8
HIBINO-BASE
 62
     7
 10
146.7999999999999
 20
-241.37293166666669
 30
0.0
 40
3.2576822916666659
  1
DRAWING NO.
 41
0.7
 11
146.7999999999999
 21
-238.11524937499999
 31
0.0
 73
     3
  0
TEXT
  5
3B
  8
HIBINO-BASE
 62
     7
 10
121.7999999999999
 20
-241.37293166666669
 30
0.0
 40
3.2576822916666659
  1
CHECK
 41
0.7
 11
121.7999999999999
 21
-238.11524937499999
 31
0.0
 73
     3
  0
LINE
  5
3C
  8
HIBINO-BASE
  6
CONTINUOUS
 62
     7
 10
28.75
 20
-253.96818500000001
 30
0.0
 11
36.25
 21
-246.46818500000001
 31
0.0
  0
TEXT
  5
3D
  8
HIBINO-BASE
 62
     7
 10
27.5
 20
-248.68607166666661
 30
0.0
 40
3.2576822916666659
  1
1
 41
0.7
 11
27.5
 21
-245.42838937499999
 31
0.0
 73
     3
  0
LINE
  5
3E
  8
HIBINO-BASE
  6
CONTINUOUS
 62
     7
 10
25.0
 20
-256.46818500000001
 30
0.0
 11
25.0
 21
-236.46818500000001
 31
0.0
  0
LINE
  5
3F
  8
HIBINO-BASE
  6
CONTINUOUS
 62
     7
 10
45.0
 20
-256.46818500000001
 30
0.0
 11
45.0
 21
-236.46818500000001
 31
0.0
  0
LINE
  5
40
  8
HIBINO-BASE
  6
CONTINUOUS
 62
     7
 10
95.0
 20
-236.46818500000001
 30
0.0
 11
95.0
 21
-256.46818500000001
 31
0.0
  0
LINE
  5
41
  8
HIBINO-BASE
  6
CONTINUOUS
 62
     7
 10
145.0
 20
-236.46818500000001
 30
0.0
 11
145.0
 21
-256.46818500000001
 31
0.0
  0
LINE
  5
42
  8
HIBINO-BASE
  6
CONTINUOUS
 62
     7
 10
120.0
 20
-256.46818500000001
 30
0.0
 11
120.0
 21
-236.46818500000001
 31
0.0
  0
TEXT
  5
43
  8
HIBINO-BASE
 62
     7
 10
46.713079999999977
 20
-250.7408916666667
 30
0.0
 40
3.2576822916666659
  1
'14.10.
 41
0.7
 11
46.713079999999977
 21
-247.483209375
 31
0.0
 73
     3
  0
TEXT
  5
44
  8
HIBINO-BASE
 62
     7
 10
35.0
 20
-252.43607166666669
 30
0.0
 40
3.2576822916666659
  1
2
 41
0.7
 11
35.0
 21
-249.17838937499999
 31
0.0
 73
     3
  0
TEXT
  5
45
  8
HIBINO-BASE
 62
     7
 10
98.011620022069224
 20
-250.7408916666667
 30
0.0
 40
3.2576822916666659
  1
N.Sasaki
 41
0.7
 11
98.011620022069224
 21
-247.483209375
 31
0.0
 73
     3
  0
TEXT
  5
46
  8
HIBINO-BASE
 62
     7
 10
7.7666666666667066
 20
-252.51618500000001
 30
0.0
 40
6.5153645833333318
  1
A4
 41
0.7
 11
7.7666666666667066
 21
-246.00082041666661
 31
0.0
 73
     3
  0
TEXT
  5
47
  8
HIBINO-BASE
 62
     7
 10
1.9166666666666849
 20
-241.7070949999999
 30
0.0
 40
3.2576822916666659
  1
PAPER SIZE
 41
0.7
 11
1.9166666666666849
 21
-238.44941270833331
 31
0.0
 73
     3
  0
TEXT
  5
48
  8
HIBINO-BASE
 62
     7
 10
-165.63199999999989
 20
-269.28554059999988
 30
0.0
 40
7.2000883593749991
  1
Hibino Corporation
 41
0.7
 11
-165.63199999999989
 21
-262.08545224062487
 31
0.0
 73
     3
  0
TEXT
  5
49
  8
HIBINO-BASE
 62
     7
 10
100.13678
 20
-269.28554059999988
 30
0.0
 40
7.2000883593749991
  1
ヒビノ株式会社
 41
0.7
 11
100.13678
 21
-262.08545224062487
 31
0.0
 73
     3
  0
LINE
  5
4A
  8
SPEC
  6
CONTINUOUS
 62
     7
 10
-164.99999999999989
 20
243.53181499999999
 30
0.0
 11
150.0
 21
243.53181499999999
 31
0.0
  0
LINE
  5
4B
  8
SPEC
  6
CONTINUOUS
 62
     7
 10
-164.99999999999989
 20
236.03181499999999
 30
0.0
 11
150.0
 21
236.03181499999999
 31
0.0
  0
LINE
  5
4C
  8
SPEC
  6
CONTINUOUS
 62
     7
 10
-164.99999999999989
 20
206.03181499999999
 30
0.0
 11
150.0
 21
206.03181499999999
 31
0.0
  0
LINE
  5
4D
  8
SPEC
  6
CONTINUOUS
 62
     7
 10
-164.99999999999989
 20
213.53181499999999
 30
0.0
 11
150.0
 21
213.53181499999999
 31
0.0
  0
LINE
  5
4E
  8
SPEC
  6
CONTINUOUS
 62
     7
 10
-164.99999999999989
 20
221.03181499999999
 30
0.0
 11
150.0
 21
221.03181499999999
 31
0.0
  0
LINE
  5
4F
  8
SPEC
  6
CONTINUOUS
 62
     7
 10
-164.99999999999989
 20
183.53181499999999
 30
0.0
 11
150.0
 21
183.53181499999999
 31
0.0
  0
LINE
  5
50
  8
SPEC
  6
CONTINUOUS
 62
     7
 10
-164.99999999999989
 20
191.03181499999999
 30
0.0
 11
150.0
 21
191.03181499999999
 31
0.0
  0
LINE
  5
51
  8
SPEC
  6
CONTINUOUS
 62
     7
 10
-164.99999999999989
 20
176.03181499999999
 30
0.0
 11
150.0
 21
176.03181499999999
 31
0.0
  0
LINE
  5
52
  8
SPEC
  6
CONTINUOUS
 62
     7
 10
-164.99999999999989
 20
168.53181499999999
 30
0.0
 11
150.0
 21
168.53181499999999
 31
0.0
  0
LINE
  5
53
  8
SPEC
  6
CONTINUOUS
 62
     7
 10
-164.99999999999989
 20
228.53181499999999
 30
0.0
 11
150.0
 21
228.53181499999999
 31
0.0
  0
TEXT
  5
54
  8
SPEC
 62
     7
 10
-163.38004502273409
 20
237.92843060206209
 30
0.0
 40
3.8006293402777769
  1
電波形式
 41
0.7
 11
-163.38004502273409
 21
241.72905994233989
 31
0.0
 73
     3
  0
TEXT
  5
55
  8
SPEC
 62
     7
 10
-98.166436747598297
 20
238.04289571761819
 30
0.0
 40
3.8006293402777769
  1
G1D
 41
0.7
 11
-98.166436747598297
 21
241.84352505789599
 31
0.0
 73
     3
  0
TEXT
  5
56
  8
SPEC
 62
     7
 10
-163.16955668242051
 20
230.54685000673109
 30
0.0
 40
3.8006293402777769
  1
伝送(変調)方式
 41
0.7
 11
-163.16955668242051
 21
234.34747934700891
 31
0.0
 73
     3
  0
TEXT
  5
57
  8
SPEC
 62
     7
 10
-98.094074941462722
 20
230.50325020174651
 30
0.0
 40
3.8006293402777769
  1
OFDM
 41
0.7
 11
-98.094074941462722
 21
234.3038795420243
 31
0.0
 73
     3
  0
TEXT
  5
58
  8
SPEC
 62
     7
 10
-163.23479503700861
 20
222.98956925343671
 30
0.0
 40
3.8006293402777769
  1
搬送波周波数
 41
0.7
 11
-163.23479503700861
 21
226.79019859371439
 31
0.0
 73
     3
  0
TEXT
  5
59
  8
SPEC
 62
     7
 10
-98.229568265751013
 20
222.91878382023631
 30
0.0
 40
3.8006293402777769
  1
2.4GHz帯(2.404～2.420GHz、2.430～2.446GHz、2.454～2.470GHz)
 41
0.7
 11
-98.229568265751013
 21
226.71941316051411
 31
0.0
 73
     3
  0
TEXT
  5
5A
  8
SPEC
 62
     7
 10
-163.32891088651931
 20
215.43140613520811
 30
0.0
 40
3.8006293402777769
  1
到達距離
 41
0.7
 11
-163.32891088651931
 21
219.2320354754859
 31
0.0
 73
     3
  0
TEXT
  5
5B
  8
SPEC
 62
     7
 10
-163.3729514136036
 20
208.0950028654475
 30
0.0
 40
3.8006293402777769
  1
空中線電力
 41
0.7
 11
-163.3729514136036
 21
211.89563220572529
 31
0.0
 73
     3
  0
TEXT
  5
5C
  8
SPEC
 62
     7
 10
-164.22196091282899
 20
200.69741402386779
 30
0.0
 40
3.8006293402777769
  1
レイテンシー
 41
0.7
 11
-164.22196091282899
 21
204.49804336414559
 31
0.0
 73
     3
  0
TEXT
  5
5D
  8
SPEC
 62
     7
 10
-163.21419303029899
 20
185.39800049304739
 30
0.0
 40
3.8006293402777769
  1
THD
 41
0.7
 11
-163.21419303029899
 21
189.1986298333251
 31
0.0
 73
     3
  0
TEXT
  5
5E
  8
SPEC
 62
     7
 10
-98.110750156612454
 20
185.441498694974
 30
0.0
 40
3.8006293402777769
  1
0.05%%%以下
 41
0.7
 11
-98.110750156612454
 21
189.2421280352518
 31
0.0
 73
     3
  0
TEXT
  5
5F
  8
SPEC
 62
     7
 10
-163.2416619045899
 20
178.0009531153658
 30
0.0
 40
3.8006293402777769
  1
周波数特性
 41
0.7
 11
-163.2416619045899
 21
181.8015824556436
 31
0.0
 73
     3
  0
TEXT
  5
60
  8
SPEC
 62
     7
 10
-98.209745073912487
 20
177.89200093052469
 30
0.0
 40
3.8006293402777769
  1
20Hz～20kHz(\U+00B13dB）*システム全体の帯域幅はマイクロホンにより変動。
 41
0.7
 11
-98.209745073912487
 21
181.69263027080251
 31
0.0
 73
     3
  0
TEXT
  5
61
  8
SPEC
 62
     7
 10
-163.57129070955079
 20
170.3542564207184
 30
0.0
 40
3.8006293402777769
  1
ダイナミックレンジ
 41
0.7
 11
-163.57129070955079
 21
174.15488576099619
 31
0.0
 73
     3
  0
TEXT
  5
62
  8
SPEC
 62
     7
 10
-98.467660880783839
 20
170.3199689190867
 30
0.0
 40
3.8006293402777769
  1
120dB(Aウェイト)
 41
0.7
 11
-98.467660880783839
 21
174.1205982593645
 31
0.0
 73
     3
  0
TEXT
  5
63
  8
SPEC
 62
     7
 10
-163.0801561612611
 20
162.91885911009891
 30
0.0
 40
3.8006293402777769
  1
AD-DA変換
 41
0.7
 11
-163.0801561612611
 21
166.71948845037659
 31
0.0
 73
     3
  0
TEXT
  5
64
  8
SPEC
 62
     7
 10
-98.170920032414003
 20
163.1337578593112
 30
0.0
 40
3.8006293402777769
  1
24bit、48kHz
 41
0.7
 11
-98.170920032414003
 21
166.934387199589
 31
0.0
 73
     3
  0
TEXT
  5
65
  8
SPEC
 62
     7
 10
-98.141583096361273
 20
200.330353938645
 30
0.0
 40
3.8006293402777769
  1
8.4ms以下(Interference Protection「LOW」設定時)、10.4ms以下(Interference Protection「MID」設定時)
 41
0.7
 11
-98.141583096361273
 21
204.1309832789228
 31
0.0
 73
     3
  0
TEXT
  5
66
  8
SPEC
 62
     7
 10
-98.292693354675706
 20
208.03227944783961
 30
0.0
 40
3.8006293402777769
  1
10mW
 41
0.7
 11
-98.292693354675706
 21
211.83290878811741
 31
0.0
 73
     3
  0
TEXT
  5
67
  8
SPEC
 62
     7
 10
-98.292693354675706
 20
215.35487920491579
 30
0.0
 40
3.8006293402777769
  1
約50m
 41
0.7
 11
-98.292693354675706
 21
219.15550854519361
 31
0.0
 73
     3
  0
TEXT
  5
68
  8
SPEC
 62
     7
 10
-98.407117062880744
 20
192.74208261294191
 30
0.0
 40
3.8006293402777769
  1
12.4ms以下(Interference Protection「HIGH」設定時)
 41
0.7
 11
-98.407117062880744
 21
196.54271195321971
 31
0.0
 73
     3
  0
TEXT
  5
69
  8
SPEC
 62
     7
 10
-162.49999999999989
 20
246.318355
 30
0.0
 40
4.8865234375000002
  1
システム性能
 41
0.7
 11
-162.49999999999989
 21
251.20487843750001
 31
0.0
 73
     3
  0
TEXT
  5
6A
  8
SPEC
 62
     7
 10
-162.5
 20
152.00255555555549
 30
0.0
 40
3.8006293402777769
  1
※DMS TETRADは2.4GHz帯の周波数を使用しているため、「送信機と受信機の間に障害物がある場合」
 41
0.7
 11
-162.5
 21
155.80318489583331
 31
0.0
 73
     3
  0
TEXT
  5
6B
  8
SPEC
 62
     7
 10
-162.5
 20
147.06366666666671
 30
0.0
 40
3.8006293402777769
  1
　「送信機や受信機を直接地面や床に置いた場合」「雨天時の屋外で使用した場合」「無線LANや電子レンジなど、
 41
0.7
 11
-162.5
 21
150.86429600694439
 31
0.0
 73
     3
  0
TEXT
  5
6C
  8
SPEC
 62
     7
 10
-162.5
 20
142.12477777777781
 30
0.0
 40
3.8006293402777769
  1
　電波を発信する機器が使用されている場所で使用した場合」では、到達距離が短くなったり音が途切れる可能性があります。
 41
0.7
 11
-162.5
 21
145.92540711805549
 31
0.0
 73
     3
  0
TEXT
  5
6D
  8
SPEC
 62
     7
 10
-162.5
 20
137.18588888888891
 30
0.0
 40
3.8006293402777769
  1
　上手く動作しない場合は、障害物を取り除くか、使用場所を変更してください。
 41
0.7
 11
-162.5
 21
140.98651822916671
 31
0.0
 73
     3
  0
LINE
  5
6E
  8
SPEC
  6
CONTINUOUS
 62
     7
 10
-164.99999999999989
 20
161.03181499999999
 30
0.0
 11
150.0
 21
161.03181499999999
 31
0.0
  0
LINE
  5
6F
  8
SPEC
  6
CONTINUOUS
 62
     7
 10
-164.99999999999989
 20
125.0
 30
0.0
 11
-164.99999999999989
 21
72.5
 31
0.0
  0
LINE
  5
70
  8
SPEC
  6
CONTINUOUS
 62
     7
 10
-100.0
 20
125.0
 30
0.0
 11
-100.0
 21
72.5
 31
0.0
  0
LINE
  5
71
  8
SPEC
  6
CONTINUOUS
 62
     7
 10
150.0
 20
125.0
 30
0.0
 11
150.0
 21
72.500000000000028
 31
0.0
  0
LINE
  5
72
  8
SPEC
  6
CONTINUOUS
 62
     7
 10
-164.99999999999989
 20
117.5
 30
0.0
 11
150.0
 21
117.5
 31
0.0
  0
LINE
  5
73
  8
SPEC
  6
CONTINUOUS
 62
     7
 10
-164.99999999999989
 20
110.0
 30
0.0
 11
150.0
 21
110.0
 31
0.0
  0
LINE
  5
74
  8
SPEC
  6
CONTINUOUS
 62
     7
 10
-164.99999999999989
 20
102.5
 30
0.0
 11
150.0
 21
102.5
 31
0.0
  0
LINE
  5
75
  8
SPEC
  6
CONTINUOUS
 62
     7
 10
-164.99999999999989
 20
95.0
 30
0.0
 11
150.0
 21
95.0
 31
0.0
  0
LINE
  5
76
  8
SPEC
  6
CONTINUOUS
 62
     7
 10
-164.99999999999989
 20
87.5
 30
0.0
 11
150.0
 21
87.5
 31
0.0
  0
LINE
  5
77
  8
SPEC
  6
CONTINUOUS
 62
     7
 10
-164.99999999999989
 20
80.0
 30
0.0
 11
150.0
 21
80.0
 31
0.0
  0
TEXT
  5
78
  8
SPEC
 62
     7
 10
-163.36879438538361
 20
82.006437935972215
 30
0.0
 40
3.8006293402777769
  1
寸法(W\U+00D7H\U+00D7D)
 41
0.7
 11
-163.36879438538361
 21
85.807067276249967
 31
0.0
 73
     3
  0
TEXT
  5
79
  8
SPEC
 62
     7
 10
-98.240227947187407
 20
81.959825292918254
 30
0.0
 40
3.8006293402777769
  1
64\U+00D793\U+00D724mm(除突起部)
 41
0.7
 11
-98.240227947187407
 21
85.760454633196034
 31
0.0
 73
     3
  0
TEXT
  5
7A
  8
SPEC
 62
     7
 10
-98.174621360162163
 20
74.366979512574531
 30
0.0
 40
3.8006293402777769
  1
80g
 41
0.7
 11
-98.174621360162163
 21
78.167608852852311
 31
0.0
 73
     3
  0
TEXT
  5
7B
  8
SPEC
 62
     7
 10
-163.34884252855309
 20
74.62712566876138
 30
0.0
 40
3.8006293402777769
  1
質量
 41
0.7
 11
-163.34884252855309
 21
78.42775500903916
 31
0.0
 73
     3
  0
TEXT
  5
7C
  8
SPEC
 62
     7
 10
-163.2531069239584
 20
111.8080525098473
 30
0.0
 40
3.8006293402777769
  1
最大入力レベル
 41
0.7
 11
-163.2531069239584
 21
115.608681850125
 31
0.0
 73
     3
  0
TEXT
  5
7D
  8
SPEC
 62
     7
 10
-98.408476538344857
 20
111.95593273691929
 30
0.0
 40
3.8006293402777769
  1
11.8dBu
 41
0.7
 11
-98.408476538344857
 21
115.756562077197
 31
0.0
 73
     3
  0
TEXT
  5
7E
  8
SPEC
 62
     7
 10
-163.3737282976428
 20
96.955151449465603
 30
0.0
 40
3.8006293402777769
  1
電源
 41
0.7
 11
-163.3737282976428
 21
100.7557807897434
 31
0.0
 73
     3
  0
TEXT
  5
7F
  8
SPEC
 62
     7
 10
-98.224305795666368
 20
96.807002585832507
 30
0.0
 40
3.8006293402777769
  1
単3形アルカリ乾電池\U+00D72または単3形ニッケル水素充電池\U+00D72
 41
0.7
 11
-98.224305795666368
 21
100.6076319261103
 31
0.0
 73
     3
  0
TEXT
  5
80
  8
SPEC
 62
     7
 10
-163.38917993331049
 20
89.505040488343411
 30
0.0
 40
3.8006293402777769
  1
電池寿命
 41
0.7
 11
-163.38917993331049
 21
93.305669828621191
 31
0.0
 73
     3
  0
TEXT
  5
81
  8
SPEC
 62
     7
 10
-98.993403534538444
 20
89.464268710342239
 30
0.0
 40
3.8006293402777769
  1
アルカリ乾電池:約6時間、ニッケル水素充電池:約7時間　＊使用環境により異なる
 41
0.7
 11
-98.993403534538444
 21
93.264898050620005
 31
0.0
 73
     3
  0
TEXT
  5
82
  8
SPEC
 62
     7
 10
-163.3190298343857
 20
119.4807091454509
 30
0.0
 40
3.8006293402777769
  1
入力端子
 41
0.7
 11
-163.3190298343857
 21
123.2813384857287
 31
0.0
 73
     3
  0
TEXT
  5
83
  8
SPEC
 62
     7
 10
-99.119269221986116
 20
119.5599186097942
 30
0.0
 40
3.8006293402777769
  1
ミニXLR3ピン(オス)
 41
0.7
 11
-99.119269221986116
 21
123.360547950072
 31
0.0
 73
     3
  0
TEXT
  5
84
  8
SPEC
 62
     7
 10
-163.40647544504449
 20
104.3391377550675
 30
0.0
 40
3.8006293402777769
  1
ゲイン調整範囲
 41
0.7
 11
-163.40647544504449
 21
108.13976709534531
 31
0.0
 73
     3
  0
TEXT
  5
85
  8
SPEC
 62
     7
 10
-98.114828157115227
 20
104.4709941158933
 30
0.0
 40
3.8006293402777769
  1
0(-21dBu)～30(9dBu)dB
 41
0.7
 11
-98.114828157115227
 21
108.271623456171
 31
0.0
 73
     3
  0
LINE
  5
86
  8
SPEC
  6
CONTINUOUS
 62
     7
 10
-164.99999999999989
 20
72.5
 30
0.0
 11
150.0
 21
72.5
 31
0.0
  0
LINE
  5
87
  8
SPEC
  6
CONTINUOUS
 62
     7
 10
-164.99999999999989
 20
125.0
 30
0.0
 11
150.0
 21
125.0
 31
0.0
  0
LINE
  5
88
  8
SPEC
  6
CONTINUOUS
 62
     7
 10
-164.99999999999989
 20
243.53181499999999
 30
0.0
 11
-164.99999999999989
 21
161.03181499999999
 31
0.0
  0
LINE
  5
89
  8
SPEC
  6
CONTINUOUS
 62
     7
 10
-100.0
 20
243.53181499999999
 30
0.0
 11
-100.0
 21
161.03181499999999
 31
0.0
  0
LINE
  5
8A
  8
SPEC
  6
CONTINUOUS
 62
     7
 10
150.0
 20
243.53181499999999
 30
0.0
 11
150.0
 21
161.03181499999999
 31
0.0
  0
TEXT
  5
8B
  8
SPEC
 62
     7
 10
-162.43898481165149
 20
127.87063354338881
 30
0.0
 40
4.8865234375000002
  1
仕様
 41
0.7
 11
-162.43898481165149
 21
132.75715698088879
 31
0.0
 73
     3
  0
TEXT
  5
8C
  8
DIMNSIONS
 62
     7
 10
-40.0
 20
-231.929205
 30
0.0
 40
4.8865234375000002
  1
(単位：mm)
 41
0.7
 11
-40.0
 21
-227.04268156250001
 31
0.0
 73
     3
  0
LINE
  5
8D
  8
DIMNSIONS
  6
CONTINUOUS
 62
     7
 10
-111.0
 20
-150.0
 30
0.0
 11
-129.0
 21
-150.0
 31
0.0
  0
LINE
  5
8E
  8
DIMNSIONS
  6
CONTINUOUS
 62
     7
 10
-111.0
 20
-57.500000000000021
 30
0.0
 11
-129.0
 21
-57.500000000000021
 31
0.0
  0
LINE
  5
8F
  8
DIMNSIONS
  6
CONTINUOUS
 62
     7
 10
-125.0
 20
-150.0
 30
0.0
 11
-125.0
 21
-57.500000000000021
 31
0.0
  0
LINE
  5
90
  8
DIMNSIONS
  6
CONTINUOUS
 62
     7
 10
-125.0
 20
-150.0
 30
0.0
 11
-126.3400795903005
 21
-144.99875488281251
 31
0.0
  0
LINE
  5
91
  8
DIMNSIONS
  6
CONTINUOUS
 62
     7
 10
-125.0
 20
-150.0
 30
0.0
 11
-123.6599204096995
 21
-144.99875488281251
 31
0.0
  0
LINE
  5
92
  8
DIMNSIONS
  6
CONTINUOUS
 62
     7
 10
-125.0
 20
-57.500000000000021
 30
0.0
 11
-123.6599204096995
 21
-62.501245117187523
 31
0.0
  0
LINE
  5
93
  8
DIMNSIONS
  6
CONTINUOUS
 62
     7
 10
-125.0
 20
-57.500000000000021
 30
0.0
 11
-126.3400795903005
 21
-62.501245117187523
 31
0.0
  0
TEXT
  5
94
  8
DIMNSIONS
 62
     7
 10
-126.98777777777769
 20
-110.8055555555555
 30
0.0
 40
5.4294704861111107
  1
92.5
 50
90.0
 41
0.7
 11
-132.41724826388881
 21
-110.8055555555555
 31
0.0
 73
     3
  0
LINE
  5
95
  8
DIMNSIONS
  6
CONTINUOUS
 62
     7
 10
-107.0
 20
-154.0
 30
0.0
 11
-107.0
 21
-179.0
 31
0.0
  0
LINE
  5
96
  8
DIMNSIONS
  6
CONTINUOUS
 62
     7
 10
-43.0
 20
-154.0
 30
0.0
 11
-43.0
 21
-179.0
 31
0.0
  0
LINE
  5
97
  8
DIMNSIONS
  6
CONTINUOUS
 62
     7
 10
-107.0
 20
-175.0
 30
0.0
 11
-43.0
 21
-175.0
 31
0.0
  0
LINE
  5
98
  8
DIMNSIONS
  6
CONTINUOUS
 62
     7
 10
-107.0
 20
-175.0
 30
0.0
 11
-101.99875488281251
 21
-173.65992040969951
 31
0.0
  0
LINE
  5
99
  8
DIMNSIONS
  6
CONTINUOUS
 62
     7
 10
-107.0
 20
-175.0
 30
0.0
 11
-101.99875488281251
 21
-176.34007959030049
 31
0.0
  0
LINE
  5
9A
  8
DIMNSIONS
  6
CONTINUOUS
 62
     7
 10
-43.0
 20
-175.0
 30
0.0
 11
-48.001245117187501
 21
-176.34007959030049
 31
0.0
  0
LINE
  5
9B
  8
DIMNSIONS
  6
CONTINUOUS
 62
     7
 10
-43.0
 20
-175.0
 30
0.0
 11
-48.001245117187501
 21
-173.65992040969951
 31
0.0
  0
TEXT
  5
9C
  8
DIMNSIONS
 62
     7
 10
-82.055555555555529
 20
-173.01222222222219
 30
0.0
 40
5.4294704861111107
  1
64.0
 41
0.7
 11
-82.055555555555529
 21
-167.58275173611111
 31
0.0
 73
     3
  0
LINE
  5
9D
  8
DIMNSIONS
  6
CONTINUOUS
 62
     7
 10
-111.0
 20
-57.500000000000021
 30
0.0
 11
-129.0
 21
-57.500000000000021
 31
0.0
  0
LINE
  5
9E
  8
DIMNSIONS
  6
CONTINUOUS
 62
     7
 10
-86.0
 20
-55.500000000000021
 30
0.0
 11
-129.0
 21
-55.500000000000021
 31
0.0
  0
LINE
  5
9F
  8
DIMNSIONS
  6
CONTINUOUS
 62
     7
 10
-125.0
 20
-55.500000000000021
 30
0.0
 11
-125.0
 21
-57.500000000000021
 31
0.0
  0
LINE
  5
A0
  8
DIMNSIONS
  6
CONTINUOUS
 62
     7
 10
-125.0
 20
-57.500000000000021
 30
0.0
 11
-125.0
 21
-67.500000000000014
 31
0.0
  0
LINE
  5
A1
  8
DIMNSIONS
  6
CONTINUOUS
 62
     7
 10
-125.0
 20
-57.500000000000021
 30
0.0
 11
-123.6599204096995
 21
-62.501245117187523
 31
0.0
  0
LINE
  5
A2
  8
DIMNSIONS
  6
CONTINUOUS
 62
     7
 10
-125.0
 20
-57.500000000000021
 30
0.0
 11
-126.3400795903005
 21
-62.501245117187523
 31
0.0
  0
LINE
  5
A3
  8
DIMNSIONS
  6
CONTINUOUS
 62
     7
 10
-125.0
 20
-55.500000000000021
 30
0.0
 11
-125.0
 21
-39.416666666666693
 31
0.0
  0
LINE
  5
A4
  8
DIMNSIONS
  6
CONTINUOUS
 62
     7
 10
-125.0
 20
-55.500000000000021
 30
0.0
 11
-126.3400795903005
 21
-50.498754882812513
 31
0.0
  0
LINE
  5
A5
  8
DIMNSIONS
  6
CONTINUOUS
 62
     7
 10
-125.0
 20
-55.500000000000021
 30
0.0
 11
-123.6599204096995
 21
-50.498754882812513
 31
0.0
  0
TEXT
  5
A6
  8
DIMNSIONS
 62
     7
 10
-126.98777777777769
 20
-50.000000000000021
 30
0.0
 40
5.4294704861111107
  1
2.0
 50
90.0
 41
0.7
 11
-132.41724826388881
 21
-50.000000000000021
 31
0.0
 73
     3
  0
LINE
  5
A7
  8
DIMNSIONS
  6
CONTINUOUS
 62
     7
 10
-96.185357451280424
 20
-25.000882826497751
 30
0.0
 11
-129.0
 21
-25.000882826497751
 31
0.0
  0
LINE
  5
A8
  8
DIMNSIONS
  6
CONTINUOUS
 62
     7
 10
-106.0
 20
-1.000561274827773
 30
0.0
 11
-129.0
 21
-1.000561274827773
 31
0.0
  0
LINE
  5
A9
  8
DIMNSIONS
  6
CONTINUOUS
 62
     7
 10
-125.0
 20
-25.000882826497751
 30
0.0
 11
-125.0
 21
-1.000561274827773
 31
0.0
  0
LINE
  5
AA
  8
DIMNSIONS
  6
CONTINUOUS
 62
     7
 10
-125.0
 20
-25.000882826497751
 30
0.0
 11
-126.3400795903005
 21
-19.999637709310239
 31
0.0
  0
LINE
  5
AB
  8
DIMNSIONS
  6
CONTINUOUS
 62
     7
 10
-125.0
 20
-25.000882826497751
 30
0.0
 11
-123.6599204096995
 21
-19.999637709310239
 31
0.0
  0
LINE
  5
AC
  8
DIMNSIONS
  6
CONTINUOUS
 62
     7
 10
-125.0
 20
-1.000561274827773
 30
0.0
 11
-123.6599204096995
 21
-6.0018063920152729
 31
0.0
  0
LINE
  5
AD
  8
DIMNSIONS
  6
CONTINUOUS
 62
     7
 10
-125.0
 20
-1.000561274827773
 30
0.0
 11
-126.3400795903005
 21
-6.0018063920152729
 31
0.0
  0
TEXT
  5
AE
  8
DIMNSIONS
 62
     7
 10
-126.98777777777769
 20
-20.05627760621832
 30
0.0
 40
5.4294704861111107
  1
24.0
 50
90.0
 41
0.7
 11
-132.41724826388881
 21
-20.05627760621832
 31
0.0
 73
     3
  0
LINE
  5
AF
  8
DATA
  6
CONTINUOUS
 62
     7
 10
-4.9973061205864164
 20
-57.500000000000021
 30
0.0
 11
-4.9973061205864164
 21
-150.0
 31
0.0
  0
TEXT
  5
B0
  8
DATA
 62
     7
 10
-175.0
 20
-240.7156294444444
 30
0.0
 40
3.8006293402777769
  1
※仕様及び外観は予告なく変更されることがあります。
 41
0.7
 11
-175.0
 21
-236.91500010416669
 31
0.0
 73
     3
  0
TEXT
  5
B1
  8
DATA
 62
     7
 10
-175.0
 20
-245.65451833333341
 30
0.0
 40
3.8006293402777769
  1
　また、同一商品でも若干の個体差があることがあります。ご了承ください。
 41
0.7
 11
-175.0
 21
-241.85388899305559
 31
0.0
 73
     3
  0
LINE
  5
B2
  8
DATA
  6
CONTINUOUS
 62
     7
 10
-107.0
 20
-150.0
 30
0.0
 11
-107.0
 21
-57.500000000000021
 31
0.0
  0
LINE
  5
B3
  8
DATA
  6
CONTINUOUS
 62
     7
 10
-43.0
 20
-57.500000000000021
 30
0.0
 11
-43.0
 21
-150.0
 31
0.0
  0
LINE
  5
B4
  8
DATA
  6
CONTINUOUS
 62
     7
 10
-43.0
 20
-104.25
 30
0.0
 11
-107.0
 21
-104.25
 31
0.0
  0
LINE
  5
B5
  8
DATA
  6
CONTINUOUS
 62
     7
 10
-43.0
 20
-103.45
 30
0.0
 11
-107.0
 21
-103.45
 31
0.0
  0
LINE
  5
B6
  8
DATA
  6
CONTINUOUS
 62
     7
 10
-88.499999999999986
 20
-57.500000000000021
 30
0.0
 11
-88.499999999999986
 21
-103.45
 31
0.0
  0
LINE
  5
B7
  8
DATA
  6
CONTINUOUS
 62
     7
 10
-88.499999999999986
 20
-104.25
 30
0.0
 11
-88.499999999999986
 21
-150.0
 31
0.0
  0
LINE
  5
B8
  8
DATA
  6
CONTINUOUS
 62
     7
 10
-61.5
 20
-57.500000000000021
 30
0.0
 11
-61.5
 21
-103.45
 31
0.0
  0
LINE
  5
B9
  8
DATA
  6
CONTINUOUS
 62
     7
 10
-61.5
 20
-104.25
 30
0.0
 11
-61.5
 21
-150.0
 31
0.0
  0
LINE
  5
BA
  8
DATA
  6
CONTINUOUS
 62
     7
 10
-92.0
 20
-57.500000000000021
 30
0.0
 11
-92.0
 21
-103.45
 31
0.0
  0
LINE
  5
BB
  8
DATA
  6
CONTINUOUS
 62
     7
 10
-92.0
 20
-104.25
 30
0.0
 11
-92.0
 21
-150.0
 31
0.0
  0
LINE
  5
BC
  8
DATA
  6
CONTINUOUS
 62
     7
 10
-58.0
 20
-57.500000000000021
 30
0.0
 11
-58.0
 21
-103.45
 31
0.0
  0
LINE
  5
BD
  8
DATA
  6
CONTINUOUS
 62
     7
 10
-58.0
 20
-104.25
 30
0.0
 11
-58.0
 21
-150.0
 31
0.0
  0
CIRCLE
  5
BE
  8
DATA
  6
CONTINUOUS
 62
     7
 10
-75.0
 20
-73.407144784445464
 30
0.0
 40
7.5
  0
CIRCLE
  5
BF
  8
DATA
  6
CONTINUOUS
 62
     7
 10
-75.0
 20
-109.25
 30
0.0
 40
0.4499999999999886
  0
CIRCLE
  5
C0
  8
DATA
  6
CONTINUOUS
 62
     7
 10
-78.0
 20
-109.25
 30
0.0
 40
0.4499999999999886
  0
CIRCLE
  5
C1
  8
DATA
  6
CONTINUOUS
 62
     7
 10
-72.0
 20
-109.25
 30
0.0
 40
0.4499999999999886
  0
CIRCLE
  5
C2
  8
DATA
  6
CONTINUOUS
 62
     7
 10
-75.0
 20
-113.25
 30
0.0
 40
0.4499999999999886
  0
CIRCLE
  5
C3
  8
DATA
  6
CONTINUOUS
 62
     7
 10
-76.545000000000016
 20
-111.19
 30
0.0
 40
0.4500000000000455
  0
CIRCLE
  5
C4
  8
DATA
  6
CONTINUOUS
 62
     7
 10
-73.454999999999984
 20
-111.19
 30
0.0
 40
0.4500000000000455
  0
LINE
  5
C5
  8
DATA
  6
CONTINUOUS
 62
     7
 10
-18.400000000000031
 20
-104.2500000000006
 30
0.0
 11
-18.400000000000031
 21
-103.4499999999325
 31
0.0
  0
LINE
  5
C6
  8
DATA
  6
CONTINUOUS
 62
     7
 10
-88.499999999999986
 20
-22.000561274827781
 30
0.0
 11
-61.5
 21
-22.000561274827781
 31
0.0
  0
LINE
  5
C7
  8
DATA
  6
CONTINUOUS
 62
     7
 10
-107.0
 20
-17.810269094752829
 30
0.0
 11
-107.0
 21
-5.0854656967455441
 31
0.0
  0
LINE
  5
C8
  8
DATA
  6
CONTINUOUS
 62
     7
 10
-43.0
 20
-17.810269094752829
 30
0.0
 11
-43.0
 21
-5.0854656967455441
 31
0.0
  0
LINE
  5
C9
  8
DATA
  6
CONTINUOUS
 62
     7
 10
-58.0
 20
-1.000561274827773
 30
0.0
 11
-52.581753492967771
 21
-1.000561274827773
 31
0.0
  0
LINE
  5
CA
  8
DATA
  6
CONTINUOUS
 62
     7
 10
-92.0
 20
-22.500561274827781
 30
0.0
 11
-88.499999999999986
 21
-22.000561274827781
 31
0.0
  0
LINE
  5
CB
  8
DATA
  6
CONTINUOUS
 62
     7
 10
-58.0
 20
-22.500561274827781
 30
0.0
 11
-61.5
 21
-22.000561274827781
 31
0.0
  0
LINE
  5
CC
  8
DATA
  6
CONTINUOUS
 62
     7
 10
-58.0
 20
-22.500561274827781
 30
0.0
 11
-44.159155576590358
 21
-19.271030909365528
 31
0.0
  0
LINE
  5
CD
  8
DATA
  6
CONTINUOUS
 62
     7
 10
-92.0
 20
-22.500561274827781
 30
0.0
 11
-105.84084442340961
 21
-19.271030909365528
 31
0.0
  0
LINE
  5
CE
  8
DATA
  6
CONTINUOUS
 62
     7
 10
-105.96964263934601
 20
-3.660883024062719
 30
0.0
 11
-98.357531785724177
 21
-1.1513959294621261
 31
0.0
  0
LINE
  5
CF
  8
DATA
  6
CONTINUOUS
 62
     7
 10
-44.030357360654023
 20
-3.6608830240627119
 30
0.0
 11
-51.642468214275823
 21
-1.1513959294621261
 31
0.0
  0
ARC
  5
D0
  8
DATA
  6
CONTINUOUS
 62
     7
 10
-105.5
 20
-5.0854656967455441
 30
0.0
 40
1.499999999999998
 50
108.2458545275779
 51
180.0
  0
ARC
  5
D1
  8
DATA
  6
CONTINUOUS
 62
     7
 10
-44.5
 20
-5.0854656967455361
 30
0.0
 40
1.5
 50
359.99999999999972
 51
71.754145472422067
  0
ARC
  5
D2
  8
DATA
  6
CONTINUOUS
 62
     7
 10
-97.418246507032222
 20
-4.0005612748277741
 30
0.0
 40
3.0
 50
90.0
 51
108.2458545275779
  0
ARC
  5
D3
  8
DATA
  6
CONTINUOUS
 62
     7
 10
-52.581753492967771
 20
-4.0005612748277741
 30
0.0
 40
2.999999999999996
 50
71.754145472422067
 51
90.0
  0
ARC
  5
D4
  8
DATA
  6
CONTINUOUS
 62
     7
 10
-105.5
 20
-17.810269094752819
 30
0.0
 40
1.5
 50
180.0000000000002
 51
256.8659776936035
  0
ARC
  5
D5
  8
DATA
  6
CONTINUOUS
 62
     7
 10
-44.5
 20
-17.81026909475284
 30
0.0
 40
1.5
 50
283.13402230639662
 51
0.0000000000002842
  0
LINE
  5
D6
  8
DATA
  6
CONTINUOUS
 62
     7
 10
-88.499999999999986
 20
-22.000561274827781
 30
0.0
 11
-88.499999999999986
 21
-11.59786739574918
 31
0.0
  0
LINE
  5
D7
  8
DATA
  6
CONTINUOUS
 62
     7
 10
-61.5
 20
-22.000561274827781
 30
0.0
 11
-61.5
 21
-18.447867395749181
 31
0.0
  0
CIRCLE
  5
D8
  8
DATA
  6
CONTINUOUS
 62
     7
 10
-97.244395747838382
 20
-11.44786739574918
 30
0.0
 40
6.75
  0
CIRCLE
  5
D9
  8
DATA
  6
CONTINUOUS
 62
     7
 10
-97.244395747838382
 20
-11.44786739574918
 30
0.0
 40
4.2400000000000091
  0
LINE
  5
DA
  8
DATA
  6
CONTINUOUS
 62
     7
 10
-43.0
 20
-11.59786739574918
 30
0.0
 11
-52.023611049052072
 21
-11.59786739574918
 31
0.0
  0
LINE
  5
DB
  8
DATA
  6
CONTINUOUS
 62
     7
 10
-67.023611049052064
 20
-11.59786739574918
 30
0.0
 11
-69.165384099682299
 21
-11.59786739574918
 31
0.0
  0
LINE
  5
DC
  8
DATA
  6
CONTINUOUS
 62
     7
 10
-80.165384099682271
 20
-11.59786739574918
 30
0.0
 11
-84.531702644654544
 21
-11.59786739574918
 31
0.0
  0
LINE
  5
DD
  8
DATA
  6
CONTINUOUS
 62
     7
 10
-86.031702644654558
 20
-11.59786739574918
 30
0.0
 11
-90.496062620317275
 21
-11.59786739574918
 31
0.0
  0
LINE
  5
DE
  8
DATA
  6
CONTINUOUS
 62
     7
 10
-103.9927288753595
 20
-11.59786739574918
 30
0.0
 11
-107.0
 21
-11.59786739574918
 31
0.0
  0
LINE
  5
DF
  8
DATA
  6
CONTINUOUS
 62
     7
 10
-107.0
 20
-11.297867395749179
 30
0.0
 11
-103.9927288753595
 21
-11.297867395749179
 31
0.0
  0
LINE
  5
E0
  8
DATA
  6
CONTINUOUS
 62
     7
 10
-90.496062620317275
 20
-11.297867395749179
 30
0.0
 11
-86.031702644654558
 21
-11.297867395749179
 31
0.0
  0
LINE
  5
E1
  8
DATA
  6
CONTINUOUS
 62
     7
 10
-84.531702644654544
 20
-11.297867395749179
 30
0.0
 11
-80.165384099682271
 21
-11.297867395749179
 31
0.0
  0
LINE
  5
E2
  8
DATA
  6
CONTINUOUS
 62
     7
 10
-69.165384099682299
 20
-11.297867395749179
 30
0.0
 11
-67.023611049052064
 21
-11.297867395749179
 31
0.0
  0
LINE
  5
E3
  8
DATA
  6
CONTINUOUS
 62
     7
 10
-52.023611049052072
 20
-11.297867395749179
 30
0.0
 11
-43.0
 21
-11.297867395749179
 31
0.0
  0
LINE
  5
E4
  8
DATA
  6
CONTINUOUS
 62
     7
 10
-52.023611049052072
 20
-4.4478673957491841
 30
0.0
 11
-52.023611049052072
 21
-7.4478673957491841
 31
0.0
  0
LINE
  5
E5
  8
DATA
  6
CONTINUOUS
 62
     7
 10
-52.023611049052072
 20
-15.44786739574918
 30
0.0
 11
-52.023611049052072
 21
-18.447867395749181
 31
0.0
  0
LINE
  5
E6
  8
DATA
  6
CONTINUOUS
 62
     7
 10
-82.023611049052064
 20
-4.4478673957491841
 30
0.0
 11
-82.023611049052064
 21
-7.4478673957491841
 31
0.0
  0
LINE
  5
E7
  8
DATA
  6
CONTINUOUS
 62
     7
 10
-82.023611049052064
 20
-15.44786739574918
 30
0.0
 11
-82.023611049052064
 21
-18.447867395749181
 31
0.0
  0
LINE
  5
E8
  8
DATA
  6
CONTINUOUS
 62
     7
 10
-82.023611049052064
 20
-4.4478673957491841
 30
0.0
 11
-52.023611049052072
 21
-4.4478673957491841
 31
0.0
  0
LINE
  5
E9
  8
DATA
  6
CONTINUOUS
 62
     7
 10
-52.023611049052072
 20
-18.447867395749181
 30
0.0
 11
-82.023611049052064
 21
-18.447867395749181
 31
0.0
  0
LINE
  5
EA
  8
DATA
  6
CONTINUOUS
 62
     7
 10
-82.023611049052064
 20
-7.4478673957491841
 30
0.0
 11
-52.023611049052072
 21
-7.4478673957491841
 31
0.0
  0
LINE
  5
EB
  8
DATA
  6
CONTINUOUS
 62
     7
 10
-52.023611049052072
 20
-15.44786739574918
 30
0.0
 11
-82.023611049052064
 21
-15.44786739574918
 31
0.0
  0
LINE
  5
EC
  8
DATA
  6
CONTINUOUS
 62
     7
 10
-67.023611049052064
 20
-15.44786739574918
 30
0.0
 11
-67.023611049052064
 21
-7.4478673957491841
 31
0.0
  0
LINE
  5
ED
  8
DATA
  6
CONTINUOUS
 62
     7
 10
-52.023611049052072
 20
-15.44786739574918
 30
0.0
 11
-52.023611049052072
 21
-7.4478673957491841
 31
0.0
  0
CIRCLE
  5
EE
  8
DATA
  6
CONTINUOUS
 62
     7
 10
-62.014694479837139
 20
-11.44437488108855
 30
0.0
 40
0.4500000000000028
  0
CIRCLE
  5
EF
  8
DATA
  6
CONTINUOUS
 62
     7
 10
-62.014694479837139
 20
-8.4443748810885495
 30
0.0
 40
0.4500000000000028
  0
CIRCLE
  5
F0
  8
DATA
  6
CONTINUOUS
 62
     7
 10
-62.014694479837139
 20
-14.44437488108855
 30
0.0
 40
0.4500000000000028
  0
CIRCLE
  5
F1
  8
DATA
  6
CONTINUOUS
 62
     7
 10
-66.014694479837146
 20
-11.44437488108855
 30
0.0
 40
0.4500000000000028
  0
CIRCLE
  5
F2
  8
DATA
  6
CONTINUOUS
 62
     7
 10
-63.954694479837137
 20
-9.899374881088562
 30
0.0
 40
0.4500000000000028
  0
CIRCLE
  5
F3
  8
DATA
  6
CONTINUOUS
 62
     7
 10
-63.954694479837137
 20
-12.98937488108853
 30
0.0
 40
0.4500000000000028
  0
CIRCLE
  5
F4
  8
DATA
  6
CONTINUOUS
 62
     7
 10
-56.967936553111819
 20
-11.44437488108855
 30
0.0
 40
0.4500000000000028
  0
CIRCLE
  5
F5
  8
DATA
  6
CONTINUOUS
 62
     7
 10
-56.967936553111819
 20
-8.4443748810885495
 30
0.0
 40
0.4500000000000028
  0
CIRCLE
  5
F6
  8
DATA
  6
CONTINUOUS
 62
     7
 10
-56.967936553111819
 20
-14.44437488108855
 30
0.0
 40
0.4500000000000028
  0
CIRCLE
  5
F7
  8
DATA
  6
CONTINUOUS
 62
     7
 10
-52.967936553111826
 20
-11.44437488108855
 30
0.0
 40
0.4500000000000028
  0
CIRCLE
  5
F8
  8
DATA
  6
CONTINUOUS
 62
     7
 10
-55.027936553111829
 20
-9.899374881088562
 30
0.0
 40
0.4500000000000028
  0
CIRCLE
  5
F9
  8
DATA
  6
CONTINUOUS
 62
     7
 10
-55.027936553111829
 20
-12.98937488108853
 30
0.0
 40
0.4500000000000028
  0
POLYLINE
  5
FA
  8
DATA
  6
CONTINUOUS
 62
     7
 66
     1
 10
0.0
 20
0.0
 30
0.0
 70
     1
  0
VERTEX
  5
25E
  8
DATA
  6
CONTINUOUS
 62
     7
 10
-80.165384099682271
 20
-8.3478673957491818
 30
0.0
  0
VERTEX
  5
25F
  8
DATA
  6
CONTINUOUS
 62
     7
 10
-69.165384099682299
 20
-8.3478673957491818
 30
0.0
  0
VERTEX
  5
260
  8
DATA
  6
CONTINUOUS
 62
     7
 10
-69.165384099682299
 20
-14.547867395749179
 30
0.0
  0
VERTEX
  5
261
  8
DATA
  6
CONTINUOUS
 62
     7
 10
-80.165384099682271
 20
-14.547867395749179
 30
0.0
  0
SEQEND
  5
262
  8
DATA
  6
CONTINUOUS
 62
     7
  0
ARC
  5
101
  8
DATA
  6
CONTINUOUS
 62
     7
 10
-74.665384099682271
 20
-11.447867395749171
 30
0.0
 40
2.0000000000000071
 50
292.02431283704198
 51
247.97568716295811
  0
LINE
  5
102
  8
DATA
  6
CONTINUOUS
 62
     7
 10
-74.665384099682271
 20
-11.59786739574918
 30
0.0
 11
-74.665384099682271
 21
-14.30056127482777
 31
0.0
  0
ARC
  5
103
  8
DATA
  6
CONTINUOUS
 62
     7
 10
-92.185357451280424
 20
-24.00088282649774
 30
0.0
 40
0.9999999999999927
 50
247.5836443947135
 51
310.60129464500602
  0
LINE
  5
104
  8
DATA
  6
CONTINUOUS
 62
     7
 10
-91.534566077824437
 20
-24.760139428863042
 30
0.0
 11
-88.499999999999986
 21
-22.000561274827781
 31
0.0
  0
LINE
  5
105
  8
DATA
  6
CONTINUOUS
 62
     7
 10
-92.566691732238255
 20
-24.925320042411482
 30
0.0
 11
-106.14
 21
-19.166882525321761
 31
0.0
  0
ARC
  5
106
  8
DATA
  6
CONTINUOUS
 62
     7
 10
-57.814642548719569
 20
-24.00088282649774
 30
0.0
 40
1.000000000000022
 50
229.39870535499409
 51
292.41635560528653
  0
LINE
  5
107
  8
DATA
  6
CONTINUOUS
 62
     7
 10
-58.465433922175578
 20
-24.760139428863042
 30
0.0
 11
-61.5
 21
-22.000561274827781
 31
0.0
  0
LINE
  5
108
  8
DATA
  6
CONTINUOUS
 62
     7
 10
-57.433308267761731
 20
-24.925320042411482
 30
0.0
 11
-43.860000000000007
 21
-19.166882525321761
 31
0.0
  0
POLYLINE
  5
109
  8
DATA
  6
CONTINUOUS
 62
     7
 66
     1
 10
0.0
 20
0.0
 30
0.0
 70
     1
  0
VERTEX
  5
263
  8
DATA
  6
CONTINUOUS
 62
     7
 10
-86.031702644654558
 20
-8.0978673957491818
 30
0.0
  0
VERTEX
  5
264
  8
DATA
  6
CONTINUOUS
 62
     7
 10
-84.531702644654544
 20
-8.0978673957491818
 30
0.0
  0
VERTEX
  5
265
  8
DATA
  6
CONTINUOUS
 62
     7
 10
-84.531702644654544
 20
-14.797867395749179
 30
0.0
  0
VERTEX
  5
266
  8
DATA
  6
CONTINUOUS
 62
     7
 10
-86.031702644654558
 20
-14.797867395749179
 30
0.0
  0
SEQEND
  5
267
  8
DATA
  6
CONTINUOUS
 62
     7
  0
CIRCLE
  5
110
  8
DATA
  6
CONTINUOUS
 62
     7
 10
-97.244395747838382
 20
-9.4478673957491832
 30
0.0
 40
0.2999999999999545
  0
CIRCLE
  5
111
  8
DATA
  6
CONTINUOUS
 62
     7
 10
-99.244395747838396
 20
-11.44786739574918
 30
0.0
 40
0.2999999999999545
  0
CIRCLE
  5
112
  8
DATA
  6
CONTINUOUS
 62
     7
 10
-95.244395747838396
 20
-11.44786739574918
 30
0.0
 40
0.2999999999999545
  0
LINE
  5
113
  8
DATA
  6
CONTINUOUS
 62
     7
 10
-90.588715013881796
 20
-23.900000000000009
 30
0.0
 11
-59.411284986118183
 21
-23.900000000000009
 31
0.0
  0
LINE
  5
114
  8
DATA
  6
CONTINUOUS
 62
     7
 10
5.599999999999965
 20
-150.0
 30
0.0
 11
5.599999999999965
 21
-110.25
 31
0.0
  0
LINE
  5
115
  8
DATA
  6
CONTINUOUS
 62
     7
 10
5.599999999999965
 20
-108.45
 30
0.0
 11
5.599999999999965
 21
-75.850000000000023
 31
0.0
  0
LINE
  5
116
  8
DATA
  6
CONTINUOUS
 62
     7
 10
-4.697306120586461
 20
-57.500000000000021
 30
0.0
 11
-4.697306120586461
 21
-150.0
 31
0.0
  0
LINE
  5
117
  8
DATA
  6
CONTINUOUS
 62
     7
 10
-18.400000000000031
 20
-103.45
 30
0.0
 11
-4.9973061205864724
 21
-103.45
 31
0.0
  0
LINE
  5
118
  8
DATA
  6
CONTINUOUS
 62
     7
 10
-18.400000000000031
 20
-104.25
 30
0.0
 11
-4.9973061205864724
 21
-104.25
 31
0.0
  0
LINE
  5
119
  8
DATA
  6
CONTINUOUS
 62
     7
 10
107.0
 20
-150.0
 30
0.0
 11
107.0
 21
-57.500000000000021
 31
0.0
  0
LINE
  5
11A
  8
DATA
  6
CONTINUOUS
 62
     7
 10
43.0
 20
-57.500000000000021
 30
0.0
 11
43.0
 21
-150.0
 31
0.0
  0
CIRCLE
  5
11B
  8
DATA
  6
CONTINUOUS
 62
     7
 10
86.0
 20
-67.250000000000014
 30
0.0
 40
1.5
  0
LINE
  5
11C
  8
DATA
  6
CONTINUOUS
 62
     7
 10
85.324999999999932
 20
-67.250000000000014
 30
0.0
 11
86.674999999999955
 21
-67.250000000000014
 31
0.0
  0
LINE
  5
11D
  8
DATA
  6
CONTINUOUS
 62
     7
 10
86.0
 20
-67.925000000000011
 30
0.0
 11
86.0
 21
-66.575000000000017
 31
0.0
  0
CIRCLE
  5
11E
  8
DATA
  6
CONTINUOUS
 62
     7
 10
73.0
 20
-110.25
 30
0.0
 40
1.5
  0
LINE
  5
11F
  8
DATA
  6
CONTINUOUS
 62
     7
 10
72.324999999999932
 20
-110.25
 30
0.0
 11
73.674999999999955
 21
-110.25
 31
0.0
  0
LINE
  5
120
  8
DATA
  6
CONTINUOUS
 62
     7
 10
73.0
 20
-110.925
 30
0.0
 11
73.0
 21
-109.575
 31
0.0
  0
CIRCLE
  5
121
  8
DATA
  6
CONTINUOUS
 62
     7
 10
49.0
 20
-72.250000000000014
 30
0.0
 40
1.5
  0
LINE
  5
122
  8
DATA
  6
CONTINUOUS
 62
     7
 10
48.324999999999932
 20
-72.250000000000014
 30
0.0
 11
49.674999999999962
 21
-72.250000000000014
 31
0.0
  0
LINE
  5
123
  8
DATA
  6
CONTINUOUS
 62
     7
 10
49.0
 20
-72.925000000000026
 30
0.0
 11
49.0
 21
-71.575000000000017
 31
0.0
  0
ARC
  5
124
  8
DATA
  6
STYLE_05
 62
     7
 10
-74.884607940329445
 20
-57.61632260594989
 30
0.0
 40
62.301251103757572
 50
75.22851780615477
 51
104.99109019635689
  0
ARC
  5
125
  8
DATA
  6
STYLE_05
 62
     7
 10
-74.884607940329445
 20
-55.81632260594985
 30
0.0
 40
62.30125110375748
 50
75.228517806155068
 51
104.99109019635701
  0
LINE
  5
126
  8
DATA
  6
STYLE_05
 62
     7
 10
-92.799999999999983
 20
1.7651921302831111
 30
0.0
 11
-92.799999999999983
 21
5.5999999999999934
 31
0.0
  0
LINE
  5
127
  8
DATA
  6
STYLE_05
 62
     7
 10
-91.0
 20
-0.0005612748277741
 30
0.0
 11
-91.0
 21
5.5999999999999934
 31
0.0
  0
ARC
  5
128
  8
DATA
  6
STYLE_05
 62
     7
 10
-91.899999999999949
 20
5.5999999999999934
 30
0.0
 40
0.8999999999999772
 50
0.0
 51
180.0
  0
ARC
  5
129
  8
DATA
  6
STYLE_05
 62
     7
 10
-58.100000000000023
 20
5.5999999999999934
 30
0.0
 40
0.9000000000000341
 50
0.0
 51
180.0
  0
LINE
  5
12A
  8
DATA
  6
STYLE_05
 62
     7
 10
-59.0
 20
5.5999999999999934
 30
0.0
 11
-59.0
 21
-0.0005612748277741
 31
0.0
  0
LINE
  5
12B
  8
DATA
  6
STYLE_05
 62
     7
 10
-57.199999999999982
 20
5.5999999999999934
 30
0.0
 11
-57.199999999999982
 21
1.765192130283125
 31
0.0
  0
LINE
  5
12C
  8
DATA
  6
CONTINUOUS
 62
     7
 10
-102.0
 20
-2.3522096264761241
 30
0.0
 11
-102.0
 21
-0.2347578684668434
 31
0.0
  0
LINE
  5
12D
  8
DATA
  6
CONTINUOUS
 62
     7
 10
-48.0
 20
-2.3522096264761241
 30
0.0
 11
-48.0
 21
-0.2347578684668292
 31
0.0
  0
LINE
  5
12E
  8
DATA
  6
CONTINUOUS
 62
     7
 10
-104.0
 20
-3.0115502858167811
 30
0.0
 11
-104.0
 21
-0.2347578684668434
 31
0.0
  0
LINE
  5
12F
  8
DATA
  6
CONTINUOUS
 62
     7
 10
-46.0
 20
-3.0115502858167882
 30
0.0
 11
-46.0
 21
-0.2347578684668292
 31
0.0
  0
ARC
  5
130
  8
DATA
  6
CONTINUOUS
 62
     7
 10
-47.0
 20
-0.2347578684668292
 30
0.0
 40
1.0
 50
0.0
 51
180.0
  0
ARC
  5
131
  8
DATA
  6
CONTINUOUS
 62
     7
 10
-103.0
 20
-0.2347578684668434
 30
0.0
 40
1.0
 50
0.0000000000007958
 51
179.9999999999992
  0
LINE
  5
132
  8
DATA
  6
STYLE_05
 62
     7
 10
-92.0
 20
-1.000561274827773
 30
0.0
 11
-102.0
 21
-1.000561274827773
 31
0.0
  0
LINE
  5
133
  8
DATA
  6
STYLE_05
 62
     7
 10
-102.98999999999999
 20
0.7651921302831113
 30
0.0
 11
-93.799999999999997
 21
0.7651921302831113
 31
0.0
  0
ARC
  5
134
  8
DATA
  6
STYLE_05
 62
     7
 10
-93.799999999999997
 20
1.7651921302831111
 30
0.0
 40
1.0
 50
270.0
 51
0.0
  0
ARC
  5
135
  8
DATA
  6
CONTINUOUS
 62
     7
 10
-92.0
 20
-0.0005612748277741
 30
0.0
 40
1.0
 50
270.0
 51
0.0
  0
LINE
  5
136
  8
DATA
  6
STYLE_05
 62
     7
 10
-47.009999999999991
 20
0.7651921302831255
 30
0.0
 11
-56.199999999999989
 21
0.7651921302831255
 31
0.0
  0
LINE
  5
137
  8
DATA
  6
STYLE_05
 62
     7
 10
-52.581753492967771
 20
-1.000561274827773
 30
0.0
 11
-48.0
 21
-1.000561274827773
 31
0.0
  0
ARC
  5
138
  8
DATA
  6
STYLE_05
 62
     7
 10
-56.199999999999989
 20
1.765192130283125
 30
0.0
 40
1.0
 50
180.0
 51
270.0
  0
ARC
  5
139
  8
DATA
  6
STYLE_05
 62
     7
 10
-58.0
 20
-0.0005612748277741
 30
0.0
 40
1.0
 50
180.0
 51
270.0
  0
LINE
  5
13A
  8
DATA
  6
CONTINUOUS
 62
     7
 10
-97.418246507032222
 20
-1.000561274827773
 30
0.0
 11
-58.149999999999977
 21
-1.000561274827773
 31
0.0
  0
LINE
  5
13B
  8
DATA
  6
STYLE_05
 62
     7
 10
6.1999999999999877
 20
-74.72240974450537
 30
0.0
 11
6.7999999999999536
 21
-74.72240974450537
 31
0.0
  0
LINE
  5
13C
  8
DATA
  6
STYLE_05
 62
     7
 10
7.3999999999999773
 20
-83.650000000000006
 30
0.0
 11
12.97725711828263
 21
-109.677199885319
 31
0.0
  0
LINE
  5
13D
  8
DATA
  6
STYLE_05
 62
     7
 10
12.89431064526587
 20
-110.7985049459575
 30
0.0
 11
5.8308053614488804
 21
-129.6345190361362
 31
0.0
  0
LINE
  5
13E
  8
DATA
  6
STYLE_05
 62
     7
 10
5.9944003745317209
 20
-130.7758671660423
 30
0.0
 11
12.93799999999999
 21
-140.03399999999999
 31
0.0
  0
LINE
  5
13F
  8
DATA
  6
STYLE_05
 62
     7
 10
7.3999999999999773
 20
-75.250000000000014
 30
0.0
 11
14.77725711828265
 21
-109.677199885319
 31
0.0
  0
LINE
  5
140
  8
DATA
  6
STYLE_05
 62
     7
 10
14.69431064526588
 20
-110.7985049459575
 30
0.0
 11
7.6308053614488918
 21
-129.6345190361362
 31
0.0
  0
LINE
  5
141
  8
DATA
  6
STYLE_05
 62
     7
 10
7.7944003745317332
 20
-130.7758671660423
 30
0.0
 11
14.08999999999997
 21
-139.16999999999999
 31
0.0
  0
LINE
  5
142
  8
DATA
  6
STYLE_05
 62
     7
 10
13.96999999999997
 20
-140.00999999999999
 30
0.0
 11
13.77799999999996
 21
-140.154
 31
0.0
  0
ARC
  5
143
  8
DATA
  6
STYLE_05
 62
     7
 10
13.60999999999995
 20
-139.53
 30
0.0
 40
0.6
 50
306.8698976458457
 51
36.869897645843992
  0
ARC
  5
144
  8
DATA
  6
STYLE_05
 62
     7
 10
13.41799999999995
 20
-139.67400000000001
 30
0.0
 40
0.5999999999999602
 50
216.8698976458451
 51
306.8698976458457
  0
ARC
  5
145
  8
DATA
  6
CONTINUOUS
 62
     7
 10
8.7544003745317127
 20
-130.0558671660423
 30
0.0
 40
1.1999999999999611
 50
159.4439547804169
 51
216.86989764584459
  0
ARC
  5
146
  8
DATA
  6
CONTINUOUS
 62
     7
 10
6.9544003745316996
 20
-130.0558671660423
 30
0.0
 40
1.1999999999999611
 50
159.4439547804169
 51
216.86989764584459
  0
ARC
  5
147
  8
DATA
  6
STYLE_05
 62
     7
 10
11.0216522901278
 20
-110.09625806278071
 30
0.0
 40
1.999999999999988
 50
339.44395478041599
 51
12.094757077012099
  0
ARC
  5
148
  8
DATA
  6
STYLE_05
 62
     7
 10
12.82165229012781
 20
-110.09625806278081
 30
0.0
 40
1.999999999999988
 50
339.44395478041599
 51
12.094757077011369
  0
LINE
  5
149
  8
DATA
  6
CONTINUOUS
 62
     7
 10
3.6499999999999759
 20
-108.45
 30
0.0
 11
5.599999999999965
 21
-108.45
 31
0.0
  0
LINE
  5
14A
  8
DATA
  6
STYLE_05
 62
     7
 10
7.3999999999999773
 20
-109.65000000000001
 30
0.0
 11
7.3999999999999773
 21
-107.0127760918802
 31
0.0
  0
LINE
  5
14B
  8
DATA
  6
STYLE_05
 62
     7
 10
7.3999999999999773
 20
-105.214268500408
 30
0.0
 11
7.3999999999999773
 21
-75.250000000000014
 31
0.0
  0
ARC
  5
14C
  8
DATA
  6
STYLE_05
 62
     7
 10
6.1999999999999877
 20
-75.322409744505393
 30
0.0
 40
0.5999999999999944
 50
90.0
 51
180.0
  0
ARC
  5
14D
  8
DATA
  6
STYLE_05
 62
     7
 10
6.7999999999999536
 20
-75.322409744505393
 30
0.0
 40
0.6000000000000229
 50
0.0
 51
90.0
  0
LINE
  5
14E
  8
DATA
  6
CONTINUOUS
 62
     7
 10
5.599999999999965
 20
-57.500000000000021
 30
0.0
 11
5.599999999999965
 21
-76.050000000000026
 31
0.0
  0
LINE
  5
14F
  8
DATA
  6
CONTINUOUS
 62
     7
 10
3.0500000000000109
 20
-109.05
 30
0.0
 11
3.0500000000000109
 21
-109.65000000000001
 31
0.0
  0
ARC
  5
150
  8
DATA
  6
CONTINUOUS
 62
     7
 10
3.6499999999999759
 20
-109.65000000000001
 30
0.0
 40
0.5999999999999659
 50
180.0
 51
270.0
  0
ARC
  5
151
  8
DATA
  6
CONTINUOUS
 62
     7
 10
3.6499999999999759
 20
-109.05
 30
0.0
 40
0.5999999999999944
 50
90.0
 51
180.0
  0
ARC
  5
152
  8
DATA
  6
CONTINUOUS
 62
     7
 10
6.7999999999999536
 20
-109.65000000000001
 30
0.0
 40
0.5999999999999659
 50
270.0
 51
0.0
  0
ARC
  5
153
  8
DATA
  6
CONTINUOUS
 62
     7
 10
5.9055521741545363
 20
-112.4190198825511
 30
0.0
 40
1.6640010974662269
 50
7.5633569124094366
 51
91.224553476860265
  0
ARC
  5
154
  8
DATA
  6
CONTINUOUS
 62
     7
 10
-42.104563216557537
 20
-106.86260442851621
 30
0.0
 40
49.945646371448198
 50
342.77119170274489
 51
353.86542513521351
  0
ARC
  5
155
  8
DATA
  6
CONTINUOUS
 62
     7
 10
5.9055521741545363
 20
-106.28098011744891
 30
0.0
 40
1.6640010974662169
 50
268.77544652313969
 51
352.43664308759162
  0
ARC
  5
156
  8
DATA
  6
CONTINUOUS
 62
     7
 10
-42.104563216557537
 20
-111.8373955714837
 30
0.0
 40
49.94564637144817
 50
6.134574864786595
 51
17.228808297255231
  0
LINE
  5
157
  8
DATA
  6
CONTINUOUS
 62
     7
 10
5.8699910347093569
 20
-107.9446011853998
 30
0.0
 11
5.599999999999965
 21
-107.9388299259351
 31
0.0
  0
LINE
  5
158
  8
DATA
  6
CONTINUOUS
 62
     7
 10
5.8699910347093569
 20
-110.7553988146001
 30
0.0
 11
5.599999999999965
 21
-110.76117007406491
 31
0.0
  0
LINE
  5
159
  8
DATA
  6
CONTINUOUS
 62
     7
 10
3.6499999999999759
 20
-110.25
 30
0.0
 11
5.599999999999965
 21
-110.25
 31
0.0
  0
LINE
  5
15A
  8
DATA
  6
STYLE_05
 62
     7
 10
5.599999999999965
 20
-110.25
 30
0.0
 11
6.8000000000000114
 21
-110.25
 31
0.0
  0
LINE
  5
15B
  8
DATA
  6
STYLE_05
 62
     7
 10
50.399999999999991
 20
-74.72240974450537
 30
0.0
 11
57.0
 21
-74.72240974450537
 31
0.0
  0
LINE
  5
15C
  8
DATA
  6
STYLE_05
 62
     7
 10
93.0
 20
-74.72240974450537
 30
0.0
 11
99.599999999999923
 21
-74.72240974450537
 31
0.0
  0
LINE
  5
15D
  8
DATA
  6
STYLE_05
 62
     7
 10
57.199999999999932
 20
-78.522409744505381
 30
0.0
 11
57.199999999999932
 21
-132.63024279578551
 31
0.0
  0
LINE
  5
15E
  8
DATA
  6
STYLE_05
 62
     7
 10
92.799999999999969
 20
-78.522409744505381
 30
0.0
 11
92.799999999999969
 21
-132.63024279578551
 31
0.0
  0
LINE
  5
15F
  8
DATA
  6
STYLE_05
 62
     7
 10
59.0
 20
-76.72240974450537
 30
0.0
 11
59.0
 21
-132.36213738890029
 31
0.0
  0
LINE
  5
160
  8
DATA
  6
STYLE_05
 62
     7
 10
91.0
 20
-76.72240974450537
 30
0.0
 11
91.0
 21
-132.36213738890029
 31
0.0
  0
ARC
  5
161
  8
DATA
  6
STYLE_05
 62
     7
 10
74.999999999999872
 20
-111.20918448022189
 30
0.0
 40
29.036546225618629
 50
235.3590595980998
 51
304.64094040190042
  0
ARC
  5
162
  8
DATA
  6
STYLE_05
 62
     7
 10
75.0
 20
-106.50083924372611
 30
0.0
 40
31.944891462114501
 50
243.312162977143
 51
296.68783702285691
  0
ARC
  5
163
  8
DATA
  6
STYLE_05
 62
     7
 10
62.0
 20
-132.36213738890029
 30
0.0
 40
3.0
 50
180.0
 51
243.3121629771417
  0
ARC
  5
164
  8
DATA
  6
STYLE_05
 62
     7
 10
60.200000000000038
 20
-132.63024279578551
 30
0.0
 40
3.0000000000001128
 50
180.0
 51
235.35905959809821
  0
ARC
  5
165
  8
DATA
  6
STYLE_05
 62
     7
 10
88.0
 20
-132.36213738890029
 30
0.0
 40
2.9999999999999711
 50
296.68783702285651
 51
0.0
  0
ARC
  5
166
  8
DATA
  6
STYLE_05
 62
     7
 10
89.799999999999955
 20
-132.63024279578551
 30
0.0
 40
3.0
 50
304.64094040190002
 51
0.0
  0
LINE
  5
167
  8
DATA
  6
STYLE_05
 62
     7
 10
50.199999999999932
 20
-78.522409744505381
 30
0.0
 11
50.199999999999932
 21
-108.75
 31
0.0
  0
LINE
  5
168
  8
DATA
  6
STYLE_05
 62
     7
 10
99.799999999999955
 20
-78.522409744505381
 30
0.0
 11
99.799999999999955
 21
-108.75
 31
0.0
  0
LINE
  5
169
  8
DATA
  6
STYLE_05
 62
     7
 10
101.59999999999989
 20
-76.72240974450537
 30
0.0
 11
101.59999999999989
 21
-106.95
 31
0.0
  0
LINE
  5
16A
  8
DATA
  6
STYLE_05
 62
     7
 10
48.399999999999977
 20
-76.72240974450537
 30
0.0
 11
48.399999999999977
 21
-106.95
 31
0.0
  0
LINE
  5
16B
  8
DATA
  6
STYLE_05
 62
     7
 10
52.199999999999932
 20
-76.522409744505381
 30
0.0
 11
55.199999999999932
 21
-76.522409744505381
 31
0.0
  0
LINE
  5
16C
  8
DATA
  6
STYLE_05
 62
     7
 10
94.799999999999955
 20
-76.522409744505381
 30
0.0
 11
97.799999999999969
 21
-76.522409744505381
 31
0.0
  0
ARC
  5
16D
  8
DATA
  6
STYLE_05
 62
     7
 10
52.199999999999932
 20
-78.522409744505381
 30
0.0
 40
2.0
 50
90.0
 51
180.0
  0
ARC
  5
16E
  8
DATA
  6
STYLE_05
 62
     7
 10
55.199999999999932
 20
-78.522409744505381
 30
0.0
 40
2.0
 50
0.0
 51
90.0
  0
ARC
  5
16F
  8
DATA
  6
STYLE_05
 62
     7
 10
50.399999999999991
 20
-76.72240974450537
 30
0.0
 40
2.0
 50
90.0
 51
180.0
  0
ARC
  5
170
  8
DATA
  6
STYLE_05
 62
     7
 10
57.0
 20
-76.72240974450537
 30
0.0
 40
2.0
 50
0.0
 51
90.0
  0
ARC
  5
171
  8
DATA
  6
STYLE_05
 62
     7
 10
94.799999999999955
 20
-78.522409744505381
 30
0.0
 40
2.0
 50
90.0
 51
180.0
  0
ARC
  5
172
  8
DATA
  6
STYLE_05
 62
     7
 10
93.0
 20
-76.72240974450537
 30
0.0
 40
2.0
 50
90.0
 51
180.0
  0
ARC
  5
173
  8
DATA
  6
STYLE_05
 62
     7
 10
97.799999999999969
 20
-78.522409744505381
 30
0.0
 40
2.0
 50
0.0
 51
90.0
  0
ARC
  5
174
  8
DATA
  6
STYLE_05
 62
     7
 10
99.599999999999923
 20
-76.72240974450537
 30
0.0
 40
2.0
 50
0.0
 51
90.0
  0
LINE
  5
175
  8
DATA
  6
CONTINUOUS
 62
     7
 10
46.699999999999932
 20
-97.044078168709504
 30
0.0
 11
47.136412787464891
 21
-97.044078168709504
 31
0.0
  0
LINE
  5
176
  8
DATA
  6
CONTINUOUS
 62
     7
 10
102.6999999999999
 20
-97.044078168709504
 30
0.0
 11
103.2999999999999
 21
-97.044078168709504
 31
0.0
  0
LINE
  5
177
  8
DATA
  6
CONTINUOUS
 62
     7
 10
46.699999999999932
 20
-121.25
 30
0.0
 11
47.136412787464891
 21
-121.25
 31
0.0
  0
LINE
  5
178
  8
DATA
  6
CONTINUOUS
 62
     7
 10
102.6999999999999
 20
-121.25
 30
0.0
 11
103.2999999999999
 21
-121.25
 31
0.0
  0
LINE
  5
179
  8
DATA
  6
STYLE_05
 62
     7
 10
44.099999999999902
 20
-108.45
 30
0.0
 11
46.899999999999977
 21
-108.45
 31
0.0
  0
LINE
  5
17A
  8
DATA
  6
STYLE_05
 62
     7
 10
103.09999999999989
 20
-108.45
 30
0.0
 11
105.89999999999991
 21
-108.45
 31
0.0
  0
LINE
  5
17B
  8
DATA
  6
STYLE_05
 62
     7
 10
44.099999999999902
 20
-110.25
 30
0.0
 11
48.699999999999932
 21
-110.25
 31
0.0
  0
LINE
  5
17C
  8
DATA
  6
STYLE_05
 62
     7
 10
101.2999999999999
 20
-110.25
 30
0.0
 11
105.89999999999991
 21
-110.25
 31
0.0
  0
LINE
  5
17D
  8
DATA
  6
STYLE_05
 62
     7
 10
44.099999999999902
 20
-110.25
 30
0.0
 11
44.099999999999902
 21
-108.45
 31
0.0
  0
LINE
  5
17E
  8
DATA
  6
STYLE_05
 62
     7
 10
105.89999999999991
 20
-110.25
 30
0.0
 11
105.89999999999991
 21
-108.45
 31
0.0
  0
ARC
  5
17F
  8
DATA
  6
STYLE_05
 62
     7
 10
46.899999999999977
 20
-106.95
 30
0.0
 40
1.5
 50
270.0
 51
0.0
  0
ARC
  5
180
  8
DATA
  6
STYLE_05
 62
     7
 10
48.699999999999932
 20
-108.75
 30
0.0
 40
1.5
 50
270.0
 51
0.0
  0
ARC
  5
181
  8
DATA
  6
STYLE_05
 62
     7
 10
103.09999999999989
 20
-106.95
 30
0.0
 40
1.5
 50
180.0
 51
270.0
  0
ARC
  5
182
  8
DATA
  6
STYLE_05
 62
     7
 10
101.2999999999999
 20
-108.75
 30
0.0
 40
1.5
 50
180.0
 51
270.0
  0
LINE
  5
183
  8
DATA
  6
CONTINUOUS
 62
     7
 10
46.699999999999932
 20
-107.9388299259351
 30
0.0
 11
47.136412787464891
 21
-107.9388299259351
 31
0.0
  0
LINE
  5
184
  8
DATA
  6
CONTINUOUS
 62
     7
 10
102.6999999999999
 20
-107.9388299259351
 30
0.0
 11
103.2999999999999
 21
-107.9388299259351
 31
0.0
  0
LINE
  5
185
  8
DATA
  6
CONTINUOUS
 62
     7
 10
46.699999999999932
 20
-110.76117007406491
 30
0.0
 11
47.136412787464891
 21
-110.76117007406491
 31
0.0
  0
LINE
  5
186
  8
DATA
  6
CONTINUOUS
 62
     7
 10
102.6999999999999
 20
-110.76117007406491
 30
0.0
 11
103.2999999999999
 21
-110.76117007406491
 31
0.0
  0
LINE
  5
187
  8
DATA
  6
CONTINUOUS
 62
     7
 10
46.0
 20
-97.744078168709507
 30
0.0
 11
46.0
 21
-107.23882992593499
 31
0.0
  0
LINE
  5
188
  8
DATA
  6
CONTINUOUS
 62
     7
 10
46.0
 20
-111.4611700740649
 30
0.0
 11
46.0
 21
-120.55
 31
0.0
  0
LINE
  5
189
  8
DATA
  6
CONTINUOUS
 62
     7
 10
47.836412787464837
 20
-97.744078168709507
 30
0.0
 11
47.836412787464837
 21
-107.23882992593499
 31
0.0
  0
LINE
  5
18A
  8
DATA
  6
CONTINUOUS
 62
     7
 10
47.836412787464837
 20
-111.4611700740649
 30
0.0
 11
47.836412787464837
 21
-120.55
 31
0.0
  0
LINE
  5
18B
  8
DATA
  6
CONTINUOUS
 62
     7
 10
102.0
 20
-97.744078168709507
 30
0.0
 11
102.0
 21
-107.23882992593499
 31
0.0
  0
LINE
  5
18C
  8
DATA
  6
CONTINUOUS
 62
     7
 10
102.0
 20
-111.4611700740649
 30
0.0
 11
102.0
 21
-120.55
 31
0.0
  0
LINE
  5
18D
  8
DATA
  6
CONTINUOUS
 62
     7
 10
104.0
 20
-97.744078168709507
 30
0.0
 11
104.0
 21
-107.23882992593499
 31
0.0
  0
LINE
  5
18E
  8
DATA
  6
CONTINUOUS
 62
     7
 10
104.0
 20
-111.4611700740649
 30
0.0
 11
104.0
 21
-120.55
 31
0.0
  0
ARC
  5
18F
  8
DATA
  6
CONTINUOUS
 62
     7
 10
46.699999999999932
 20
-97.744078168709507
 30
0.0
 40
0.6999999999999887
 50
90.0
 51
180.00000000000111
  0
ARC
  5
190
  8
DATA
  6
CONTINUOUS
 62
     7
 10
47.136412787464891
 20
-97.744078168709507
 30
0.0
 40
0.6999999999999318
 50
0.0
 51
90.0
  0
ARC
  5
191
  8
DATA
  6
CONTINUOUS
 62
     7
 10
46.699999999999932
 20
-107.23882992593499
 30
0.0
 40
0.6999999999999318
 50
180.0
 51
270.0
  0
ARC
  5
192
  8
DATA
  6
CONTINUOUS
 62
     7
 10
47.136412787464891
 20
-107.23882992593499
 30
0.0
 40
0.6999999999999887
 50
270.0
 51
0.0000000000023306
  0
ARC
  5
193
  8
DATA
  6
CONTINUOUS
 62
     7
 10
46.699999999999932
 20
-111.4611700740649
 30
0.0
 40
0.7000000000000171
 50
90.0
 51
180.0
  0
ARC
  5
194
  8
DATA
  6
CONTINUOUS
 62
     7
 10
47.136412787464891
 20
-111.4611700740649
 30
0.0
 40
0.6999999999999318
 50
0.0
 51
90.0
  0
ARC
  5
195
  8
DATA
  6
CONTINUOUS
 62
     7
 10
46.699999999999932
 20
-120.55
 30
0.0
 40
0.6999999999999318
 50
180.0
 51
270.0
  0
ARC
  5
196
  8
DATA
  6
CONTINUOUS
 62
     7
 10
47.136412787464891
 20
-120.55
 30
0.0
 40
0.7000000000000171
 50
270.0
 51
359.99999999999773
  0
ARC
  5
197
  8
DATA
  6
CONTINUOUS
 62
     7
 10
103.2999999999999
 20
-97.744078168709507
 30
0.0
 40
0.7000000000000455
 50
0.0
 51
90.0
  0
ARC
  5
198
  8
DATA
  6
CONTINUOUS
 62
     7
 10
102.6999999999999
 20
-97.744078168709507
 30
0.0
 40
0.6999999999999887
 50
90.0
 51
180.00000000000111
  0
ARC
  5
199
  8
DATA
  6
CONTINUOUS
 62
     7
 10
102.6999999999999
 20
-107.23882992593499
 30
0.0
 40
0.6999999999999318
 50
180.0
 51
270.0
  0
ARC
  5
19A
  8
DATA
  6
CONTINUOUS
 62
     7
 10
103.2999999999999
 20
-107.23882992593499
 30
0.0
 40
0.6999999999999887
 50
270.0
 51
0.0000000000023306
  0
ARC
  5
19B
  8
DATA
  6
CONTINUOUS
 62
     7
 10
102.6999999999999
 20
-111.4611700740649
 30
0.0
 40
0.7000000000000171
 50
90.0
 51
180.0
  0
ARC
  5
19C
  8
DATA
  6
CONTINUOUS
 62
     7
 10
103.2999999999999
 20
-111.4611700740649
 30
0.0
 40
0.7000000000000455
 50
0.0
 51
90.0
  0
ARC
  5
19D
  8
DATA
  6
CONTINUOUS
 62
     7
 10
102.6999999999999
 20
-120.55
 30
0.0
 40
0.6999999999999318
 50
180.0
 51
270.0
  0
ARC
  5
19E
  8
DATA
  6
CONTINUOUS
 62
     7
 10
103.2999999999999
 20
-120.55
 30
0.0
 40
0.7000000000000171
 50
270.0
 51
359.99999999999773
  0
LINE
  5
19F
  8
DATA
  6
CONTINUOUS
 62
     7
 10
57.199999999999932
 20
-129.6345190361362
 30
0.0
 11
59.0
 21
-129.6345190361362
 31
0.0
  0
LINE
  5
1A0
  8
DATA
  6
CONTINUOUS
 62
     7
 10
91.0
 20
-129.6345190361362
 30
0.0
 11
92.799999999999969
 21
-129.6345190361362
 31
0.0
  0
TEXT
  5
1A1
  8
DATA
 62
     7
 10
100.0
 20
-219.70640499999999
 30
0.0
 40
4.8865234375000002
  1
AKG
 41
0.7
 11
100.0
 21
-214.8198815625
 31
0.0
 73
     3
  0
TEXT
  5
1A2
  8
DATA
 62
     7
 10
100.0
 20
-234.20640499999999
 30
0.0
 40
4.8865234375000002
  1
DPT TETRAD
 41
0.7
 11
100.0
 21
-229.3198815625
 31
0.0
 73
     3
  0
LINE
  5
1A3
  8
DATA
  6
CONTINUOUS
 62
     7
 10
-107.0
 20
-57.500000000000021
 30
0.0
 11
-43.0
 21
-57.500000000000021
 31
0.0
  0
LINE
  5
1A4
  8
DATA
  6
CONTINUOUS
 62
     7
 10
-82.0
 20
-55.500000000000021
 30
0.0
 11
-52.0
 21
-55.500000000000021
 31
0.0
  0
LINE
  5
1A5
  8
DATA
  6
CONTINUOUS
 62
     7
 10
-52.0
 20
-57.500000000000021
 30
0.0
 11
-52.0
 21
-55.500000000000021
 31
0.0
  0
LINE
  5
1A6
  8
DATA
  6
CONTINUOUS
 62
     7
 10
-82.0
 20
-57.500000000000021
 30
0.0
 11
-82.0
 21
-55.500000000000021
 31
0.0
  0
LINE
  5
1A7
  8
DATA
  6
CONTINUOUS
 62
     7
 10
-17.050000000000011
 20
-57.500000000000021
 30
0.0
 11
5.599999999999965
 21
-57.500000000000021
 31
0.0
  0
LINE
  5
1A8
  8
DATA
  6
CONTINUOUS
 62
     7
 10
-11.84730612058644
 20
-55.500000000000021
 30
0.0
 11
2.1526938794135608
 21
-55.500000000000021
 31
0.0
  0
LINE
  5
1A9
  8
DATA
  6
CONTINUOUS
 62
     7
 10
-11.84730612058644
 20
-55.500000000000021
 30
0.0
 11
-11.84730612058644
 21
-57.500000000000021
 31
0.0
  0
LINE
  5
1AA
  8
DATA
  6
CONTINUOUS
 62
     7
 10
2.1526938794135608
 20
-55.500000000000021
 30
0.0
 11
2.1526938794135608
 21
-57.500000000000021
 31
0.0
  0
LINE
  5
1AB
  8
DATA
  6
CONTINUOUS
 62
     7
 10
-8.8473061205864383
 20
-55.500000000000021
 30
0.0
 11
-8.8473061205864383
 21
-57.500000000000021
 31
0.0
  0
LINE
  5
1AC
  8
DATA
  6
CONTINUOUS
 62
     7
 10
-0.8473061205864382
 20
-55.500000000000021
 30
0.0
 11
-0.8473061205864382
 21
-57.500000000000021
 31
0.0
  0
LINE
  5
1AD
  8
DATA
  6
CONTINUOUS
 62
     7
 10
107.0
 20
-57.500000000000021
 30
0.0
 11
43.0
 21
-57.500000000000021
 31
0.0
  0
LINE
  5
1AE
  8
DATA
  6
CONTINUOUS
 62
     7
 10
82.0
 20
-55.500000000000021
 30
0.0
 11
52.0
 21
-55.500000000000021
 31
0.0
  0
LINE
  5
1AF
  8
DATA
  6
CONTINUOUS
 62
     7
 10
52.0
 20
-57.500000000000021
 30
0.0
 11
52.0
 21
-55.500000000000021
 31
0.0
  0
LINE
  5
1B0
  8
DATA
  6
CONTINUOUS
 62
     7
 10
82.0
 20
-57.500000000000021
 30
0.0
 11
82.0
 21
-55.500000000000021
 31
0.0
  0
LINE
  5
1B1
  8
DATA
  6
CONTINUOUS
 62
     7
 10
-88.499999999999986
 20
-57.500000000000021
 30
0.0
 11
-88.499999999999986
 21
-103.45
 31
0.0
  0
LINE
  5
1B2
  8
DATA
  6
CONTINUOUS
 62
     7
 10
-43.0
 20
-150.0
 30
0.0
 11
-107.0
 21
-150.0
 31
0.0
  0
LINE
  5
1B3
  8
DATA
  6
CONTINUOUS
 62
     7
 10
-12.50000000000011
 20
-150.0
 30
0.0
 11
5.599999999999965
 21
-150.0
 31
0.0
  0
LINE
  5
1B4
  8
DATA
  6
CONTINUOUS
 62
     7
 10
43.0
 20
-150.0
 30
0.0
 11
107.0
 21
-150.0
 31
0.0
  0
TEXT
  5
1B5
  8
DATA
 62
     7
 10
-78.396366584395153
 20
-145.7973817237127
 30
0.0
 40
3.8006293402777769
  1
DPT
 41
0.7
 72
     1
 11
-74.849112533469224
 21
-143.89706705357381
 31
0.0
 73
     2
  0
ARC
  5
1B6
  8
DATA
  6
CONTINUOUS
 62
     7
 10
-16887.366693081909
 20
415.15103450916132
 30
0.0
 40
16876.936461493849
 50
358.23911592665718
 51
358.39517967055741
  0
ARC
  5
1B7
  8
DATA
  6
CONTINUOUS
 62
     7
 10
339.706356713172
 20
-91.112457794309435
 30
0.0
 40
353.91877041165009
 50
174.55027804167281
 51
181.99772491539721
  0
ARC
  5
1B8
  8
DATA
  6
CONTINUOUS
 62
     7
 10
382.75219664602031
 20
-75.772148410677431
 30
0.0
 40
402.161749679244
 50
184.06062338684561
 51
190.6361877961744
  0
ARC
  5
1B9
  8
DATA
  6
CONTINUOUS
 62
     7
 10
319.61842729549329
 20
-63.090388367213748
 30
0.0
 40
336.04859020002021
 50
187.03531746686659
 51
194.98832158276139
  0
TEXT
  5
1BA
  8
DATA
 62
     7
 10
95.0
 20
-226.3673147220824
 30
0.0
 40
3.2576822916666659
  1
ボディーパック型送信機
 41
0.7
 11
95.0
 21
-223.1096324304157
 31
0.0
 73
     3
  0
ENDSEC
  0
EOF
